  0
SECTION
  2
HEADER
  9
$ACADVER
  1
AC1009
  9
$INSBASE
 10
0
 20
0
 30
0
  9
$EXTMIN
 10
0
 20
0
  9
$EXTMAX
 10
14850
 20
10500
  9
$LIMMIN
 10
0
 20
0
  9
$LIMMAX
 10
14850
 20
10500
  9
$LTSCALE
 40
50
  0
ENDSEC
  0
SECTION
  2
TABLES
  0
TABLE
  2
LTYPE
 70
     9
  0
LTYPE
  2
CONTINUOUS
 70
    64
  3
実線
 72
    65
 73
     0
 40
0.0
  0
LTYPE
  2
DASHED1
 70
    64
  3
--  --  --  --  --  --  --  --  
 72
    65
 73
     2
 40
2.5
 49
1.25
 49
-1.25
  0
LTYPE
  2
DASHED2
 70
    64
  3
----    ----    ----    ----    
 72
    65
 73
     2
 40
5.0
 49
2.5
 49
-2.5
  0
LTYPE
  2
DASHED3
 70
    64
  3
------  ------  ------  ------  
 72
    65
 73
     2
 40
5.0
 49
3.75
 49
-1.25
  0
LTYPE
  2
CENTER1
 70
    64
  3
----- - ----- - ----- - ----- - 
 72
    65
 73
     4
 40
10.0
 49
6.25
 49
-1.25
 49
1.25
 49
-1.25
  0
LTYPE
  2
CENTER2
 70
    64
  3
----------  --  ----------  --  
 72
    65
 73
     4
 40
20.0
 49
12.5
 49
-2.5
 49
2.5
 49
-2.5
  0
LTYPE
  2
PHANTOM1
 70
    64
  3
--- - - --- - - --- - - --- - - 
 72
    65
 73
     6
 40
10.0
 49
3.25
 49
-1.25
 49
1.25
 49
-1.25
 49
1.25
 49
-1.25
  0
LTYPE
  2
PHANTOM2
 70
    64
  3
--------  -  -  --------  -  -  
 72
    65
 73
     6
 40
20.0
 49
10.0
 49
-2.5
 49
1.25
 49
-2.5
 49
1.25
 49
-2.5
  0
LTYPE
  2
DOT
 70
    64
  3
-   -   -   -   -   -   -   -   
 72
    65
 73
     2
 40
2.5
 49
0.625
 49
-1.875
  0
LTYPE
  2
DUMMY
 70
    64
  3
ダミー
 72
    65
 73
     0
 40
0.0
  0
LTYPE
  2
RAND1
 70
    64
  3
ランダム線1
 72
    65
 73
     4
 40
10.0
 49
1.0
 49
-2.0
 49
3.0
 49
-4.0
  0
LTYPE
  2
RAND2
 70
    64
  3
ランダム線2
 72
    65
 73
     4
 40
14.0
 49
2.0
 49
-3.0
 49
4.0
 49
-5.0
  0
LTYPE
  2
RAND3
 70
    64
  3
ランダム線3
 72
    65
 73
     4
 40
18.0
 49
3.0
 49
-4.0
 49
5.0
 49
-6.0
  0
LTYPE
  2
RAND4
 70
    64
  3
ランダム線4
 72
    65
 73
     4
 40
22.0
 49
4.0
 49
-5.0
 49
6.0
 49
-7.0
  0
LTYPE
  2
RAND5
 70
    64
  3
ランダム線5
 72
    65
 73
     4
 40
26.0
 49
5.0
 49
-6.0
 49
7.0
 49
-8.0
  0
LTYPE
  2
LONG1
 70
    64
  3
----------  --  ----------  --  
 72
    65
 73
     4
 40
40.0
 49
32.5
 49
-2.5
 49
2.5
 49
-2.5
  0
LTYPE
  2
LONG2
 70
    64
  3
--------  -  -  --------  -  -  
 72
    65
 73
     6
 40
40.0
 49
30.0
 49
-2.5
 49
1.25
 49
-2.5
 49
1.25
 49
-2.5
  0
LTYPE
  2
LONG3
 70
    64
  3
+++++++++++++++..+++++++++++++++
 72
    65
 73
     2
 40
40.0
 49
37.5
 49
-2.5
  0
LTYPE
  2
LONG4
 70
    64
  3
+++++++++++++++..+++++++++++++++
 72
    65
 73
     2
 40
80.0
 49
75.0
 49
-5.0
  0
LTYPE
  2
LONG5
 70
    64
  3
----------  --  ----------  --  
 72
    65
 73
     4
 40
60.0
 49
37.5
 49
-7.5
 49
7.5
 49
-7.5
  0
LTYPE
  2
dashed
 70
   64
  3
-------   -------------   ------
 72
   65
 73
    2
 40
7.5
 49
6
 49
-1.5
  0
LTYPE
  2
dashed_spaced
 70
   64
  3
----        --------        ----
 72
   65
 73
    2
 40
12
 49
6
 49
-6
  0
LTYPE
  2
long_dashed_dotted
 70
   64
  3
------------- --- --------------
 72
   65
 73
    4
 40
15.25
 49
12
 49
-1.5
 49
0.25
 49
-1.5
  0
LTYPE
  2
long_dashed_double-dotted
 70
   64
  3
----------- --- --- ------------
 72
   65
 73
    6
 40
17
 49
12
 49
-1.5
 49
0.25
 49
-1.5
 49
0.25
 49
-1.5
  0
LTYPE
  2
long_dashed_triplicate-dotted
 70
   64
  3
--------- --- --- --- ----------
 72
   65
 73
    8
 40
18.75
 49
12
 49
-1.5
 49
0.25
 49
-1.5
 49
0.25
 49
-1.5
 49
0.25
 49
-1.5
  0
LTYPE
  2
dotted
 70
   64
  3
   -       -       -       -    
 72
   65
 73
    2
 40
1.75
 49
0.25
 49
-1.5
  0
LTYPE
  2
chain
 70
   64
  3
-------------- -- --------------
 72
   65
 73
    4
 40
18.5
 49
12
 49
-1.5
 49
3.5
 49
-1.5
  0
LTYPE
  2
chain_double_dash
 70
   64
  3
------------ -- -- -------------
 72
   65
 73
    6
 40
23.5
 49
12
 49
-1.5
 49
3.5
 49
-1.5
 49
3.5
 49
-1.5
  0
LTYPE
  2
dashed_dotted
 70
   64
  3
-----------     -     ----------
 72
   65
 73
    4
 40
9.25
 49
6
 49
-1.5
 49
0.25
 49
-1.5
  0
LTYPE
  2
double-dashed_dotted
 70
   64
  3
------   -----------   -   -----
 72
   65
 73
    6
 40
16.75
 49
6
 49
-1.5
 49
6
 49
-1.5
 49
0.25
 49
-1.5
  0
LTYPE
  2
dashed_double-dotted
 70
   64
  3
---------    -    -    ---------
 72
   65
 73
    6
 40
11
 49
6
 49
-1.5
 49
0.25
 49
-1.5
 49
0.25
 49
-1.5
  0
LTYPE
  2
double-dashed_double-dotted
 70
   64
  3
-----   ---------   -   -   ----
 72
   65
 73
    8
 40
18.5
 49
6
 49
-1.5
 49
6
 49
-1.5
 49
0.25
 49
-1.5
 49
0.25
 49
-1.5
  0
LTYPE
  2
dashed_triplicate-dotted
 70
   64
  3
-------    -    -    -    ------
 72
   65
 73
    8
 40
12.75
 49
6
 49
-1.5
 49
0.25
 49
-1.5
 49
0.25
 49
-1.5
 49
0.25
 49
-1.5
  0
LTYPE
  2
double-dashed_triplicate-dotted
 70
   64
  3
-----  ---------  -  -  -  -----
 72
   65
 73
   10
 40
20.25
 49
6
 49
-1.5
 49
6
 49
-1.5
 49
0.25
 49
-1.5
 49
0.25
 49
-1.5
 49
0.25
 49
-1.5
  0
LTYPE
  2
undefined
 70
   64
  3
--------------------------------
 72
   65
 73
    0
 40
0
  0
LTYPE
  2
_
 70
   64
  3
                                
 72
   65
 73
    0
 40
0
  0
LTYPE
  2
__18
 70
   64
  3
                                
 72
   65
 73
    0
 40
0
  0
LTYPE
  2
__19
 70
   64
  3
                                
 72
   65
 73
    0
 40
0
  0
LTYPE
  2
__20
 70
   64
  3
                                
 72
   65
 73
    0
 40
0
  0
LTYPE
  2
__21
 70
   64
  3
                                
 72
   65
 73
    0
 40
0
  0
LTYPE
  2
__22
 70
   64
  3
                                
 72
   65
 73
    0
 40
0
  0
LTYPE
  2
__23
 70
   64
  3
                                
 72
   65
 73
    0
 40
0
  0
LTYPE
  2
__24
 70
   64
  3
                                
 72
   65
 73
    0
 40
0
  0
LTYPE
  2
__25
 70
   64
  3
                                
 72
   65
 73
    0
 40
0
  0
LTYPE
  2
__26
 70
   64
  3
                                
 72
   65
 73
    0
 40
0
  0
LTYPE
  2
__27
 70
   64
  3
                                
 72
   65
 73
    0
 40
0
  0
LTYPE
  2
__28
 70
   64
  3
                                
 72
   65
 73
    0
 40
0
  0
LTYPE
  2
__29
 70
   64
  3
                                
 72
   65
 73
    0
 40
0
  0
LTYPE
  2
__30
 70
   64
  3
                                
 72
   65
 73
    0
 40
0
  0
LTYPE
  2
__31
 70
   64
  3
                                
 72
   65
 73
    0
 40
0
  0
LTYPE
  2
__32
 70
   64
  3
                                
 72
   65
 73
    0
 40
0
  0
ENDTAB
  0
TABLE
  2
STYLE
  5
3
100
AcDbSymbolTable
 70
     1
  0
STYLE
  5
10
100
AcDbSymbolTableRecord
100
AcDbTextStyleTableRecord
  2
STANDARD
 70
     0
 40
0.0
 41
1.0
 50
0.0
 71
     0
 42
0.2
  3
txt
  4
bigfont.shx
  0
STYLE
  5
26
100
AcDbSymbolTableRecord
100
AcDbTextStyleTableRecord
  2
TATEGAKI
 70
    68
 40
0.0
 41
1.0
 50
0.0
 71
     0
 42
1.0
  3
txt
  4
bigfont.shx
  0
ENDTAB
  0
TABLE
  2
LAYER
 70
    3
  0
LAYER
  2
_0-0_
 70
   64
 62
    7
  6
CONTINUOUS
  0
LAYER
  2
_0-1_
 70
   64
 62
    7
  6
CONTINUOUS
  0
LAYER
  2
ADD_LINE
 70
   64
 62
    7
  6
CONTINUOUS
  0
ENDTAB
  0
ENDSEC
  0
SECTION
  2
BLOCKS
  0
ENDSEC
  0
SECTION
  2
ENTITIES
  0
LINE
  8
_0-1_
  6
CONTINUOUS
 62
    7
 10
6168.3444259567386
 20
4812.6871880199669
 11
5568.3444259567386
 21
4812.6871880199669
  0
LINE
  8
_0-1_
  6
CONTINUOUS
 62
    7
 10
5448.3444259567395
 20
3112.6871880199665
 11
5508.3444259567386
 21
3112.6871880199665
  0
LINE
  8
_0-1_
  6
CONTINUOUS
 62
    7
 10
6368.3444259567386
 20
3862.6871880199665
 11
5368.3444259567386
 21
3862.6871880199665
  0
LINE
  8
_0-1_
  6
CONTINUOUS
 62
    7
 10
7138.3444259567386
 20
3112.6871880199665
 11
7198.3444259567395
 21
3112.6871880199665
  0
LINE
  8
_0-1_
  6
CONTINUOUS
 62
    7
 10
7198.3444259567395
 20
3112.6871880199665
 11
7198.3444259567395
 21
3832.6871880199669
  0
LINE
  8
_0-1_
  6
CONTINUOUS
 62
    7
 10
7198.3444259567395
 20
3832.6871880199669
 11
7138.3444259567386
 21
3832.6871880199669
  0
LINE
  8
_0-1_
  6
CONTINUOUS
 62
    7
 10
7138.3444259567386
 20
3832.6871880199669
 11
7138.3444259567386
 21
3112.6871880199665
  0
LINE
  8
_0-1_
  6
CONTINUOUS
 62
    7
 10
7538.3444259567386
 20
3112.6871880199665
 11
7598.3444259567395
 21
3112.6871880199665
  0
LINE
  8
_0-1_
  6
CONTINUOUS
 62
    7
 10
7598.3444259567395
 20
3112.6871880199665
 11
7598.3444259567395
 21
3832.6871880199669
  0
LINE
  8
_0-1_
  6
CONTINUOUS
 62
    7
 10
7598.3444259567395
 20
3832.6871880199669
 11
7538.3444259567386
 21
3832.6871880199669
  0
LINE
  8
_0-1_
  6
CONTINUOUS
 62
    7
 10
7538.3444259567386
 20
3832.6871880199669
 11
7538.3444259567386
 21
3112.6871880199665
  0
LINE
  8
_0-1_
  6
CONTINUOUS
 62
    7
 10
7628.3444259567386
 20
3862.6871880199665
 11
7108.3444259567386
 21
3862.6871880199665
  0
LINE
  8
_0-1_
  6
CONTINUOUS
 62
    7
 10
7108.3444259567386
 20
3862.6871880199665
 11
7108.3444259567386
 21
3832.6871880199669
  0
LINE
  8
_0-1_
  6
CONTINUOUS
 62
    7
 10
7108.3444259567386
 20
3832.6871880199669
 11
7628.3444259567386
 21
3832.6871880199669
  0
LINE
  8
_0-1_
  6
CONTINUOUS
 62
    7
 10
7628.3444259567386
 20
3832.6871880199669
 11
7628.3444259567386
 21
3862.6871880199665
  0
LINE
  8
_0-1_
  6
CONTINUOUS
 62
    7
 10
7198.3444259567395
 20
3732.6871880199669
 11
7538.3444259567386
 21
3732.6871880199669
  0
LINE
  8
_0-1_
  6
CONTINUOUS
 62
    7
 10
7198.3444259567395
 20
3645.6871880199669
 11
7538.3444259567386
 21
3645.6871880199669
  0
LINE
  8
_0-1_
  6
CONTINUOUS
 62
    7
 10
7198.3444259567395
 20
3627.6871880199665
 11
7538.3444259567386
 21
3627.6871880199665
  0
LINE
  8
_0-1_
  6
CONTINUOUS
 62
    7
 10
7322.3444259567386
 20
3802.6871880199665
 11
7414.3444259567386
 21
3802.6871880199665
  0
LINE
  8
_0-1_
  6
CONTINUOUS
 62
    7
 10
7414.3444259567386
 20
3802.6871880199665
 11
7414.3444259567386
 21
3767.6871880199669
  0
LINE
  8
_0-1_
  6
CONTINUOUS
 62
    7
 10
7414.3444259567386
 20
3767.6871880199669
 11
7322.3444259567386
 21
3767.6871880199669
  0
LINE
  8
_0-1_
  6
CONTINUOUS
 62
    7
 10
7322.3444259567386
 20
3767.6871880199669
 11
7322.3444259567386
 21
3802.6871880199665
  0
LINE
  8
_0-1_
  6
CONTINUOUS
 62
    7
 10
7354.3444259567395
 20
3774.1871880199669
 11
7382.3444259567395
 21
3774.1871880199669
  0
LINE
  8
_0-1_
  6
CONTINUOUS
 62
    7
 10
7382.3444259567395
 20
3774.1871880199669
 11
7382.3444259567395
 21
3796.1871880199665
  0
LINE
  8
_0-1_
  6
CONTINUOUS
 62
    7
 10
7382.3444259567395
 20
3796.1871880199665
 11
7354.3444259567395
 21
3796.1871880199665
  0
LINE
  8
_0-1_
  6
CONTINUOUS
 62
    7
 10
7354.3444259567395
 20
3796.1871880199665
 11
7354.3444259567395
 21
3774.1871880199669
  0
LINE
  8
_0-1_
  6
CONTINUOUS
 62
    7
 10
7360.3444259567386
 20
3780.1871880199669
 11
7362.3444259567395
 21
3780.1871880199669
  0
LINE
  8
_0-1_
  6
CONTINUOUS
 62
    7
 10
7362.3444259567395
 20
3780.1871880199669
 11
7362.3444259567395
 21
3790.1871880199665
  0
LINE
  8
_0-1_
  6
CONTINUOUS
 62
    7
 10
7362.3444259567395
 20
3790.1871880199665
 11
7360.3444259567386
 21
3790.1871880199665
  0
LINE
  8
_0-1_
  6
CONTINUOUS
 62
    7
 10
7360.3444259567386
 20
3790.1871880199665
 11
7360.3444259567386
 21
3780.1871880199669
  0
LINE
  8
_0-1_
  6
CONTINUOUS
 62
    7
 10
7374.3444259567386
 20
3780.1871880199669
 11
7376.3444259567395
 21
3780.1871880199669
  0
LINE
  8
_0-1_
  6
CONTINUOUS
 62
    7
 10
7376.3444259567395
 20
3780.1871880199669
 11
7376.3444259567395
 21
3790.1871880199665
  0
LINE
  8
_0-1_
  6
CONTINUOUS
 62
    7
 10
7376.3444259567395
 20
3790.1871880199665
 11
7374.3444259567386
 21
3790.1871880199665
  0
LINE
  8
_0-1_
  6
CONTINUOUS
 62
    7
 10
7374.3444259567386
 20
3790.1871880199665
 11
7374.3444259567386
 21
3780.1871880199669
  0
LINE
  8
_0-1_
  6
CONTINUOUS
 62
    7
 10
7413.3444259567386
 20
3912.6871880199665
 11
7323.3444259567395
 21
3912.6871880199665
  0
LINE
  8
_0-1_
  6
CONTINUOUS
 62
    7
 10
7323.3444259567395
 20
3912.6871880199665
 11
7323.3444259567395
 21
3862.6871880199665
  0
LINE
  8
_0-1_
  6
CONTINUOUS
 62
    7
 10
7413.3444259567386
 20
3912.6871880199665
 11
7413.3444259567386
 21
3862.6871880199665
  0
LINE
  8
_0-1_
  6
CONTINUOUS
 62
    7
 10
7403.3444259567386
 20
4912.6871880199669
 11
7403.3444259567386
 21
3912.6871880199665
  0
LINE
  8
_0-1_
  6
CONTINUOUS
 62
    7
 10
7403.3444259567386
 20
4912.6871880199669
 11
7333.3444259567386
 21
4912.6871880199669
  0
LINE
  8
_0-1_
  6
CONTINUOUS
 62
    7
 10
7333.3444259567386
 20
4912.6871880199669
 11
7333.3444259567386
 21
3912.6871880199665
  0
LINE
  8
_0-1_
  6
CONTINUOUS
 62
    7
 10
5368.3444259567386
 20
3862.6871880199665
 11
5368.3444259567386
 21
3832.6871880199669
  0
LINE
  8
_0-1_
  6
CONTINUOUS
 62
    7
 10
6368.3444259567386
 20
3832.6871880199669
 11
5368.3444259567386
 21
3832.6871880199669
  0
LINE
  8
_0-1_
  6
CONTINUOUS
 62
    7
 10
6368.3444259567386
 20
3862.6871880199665
 11
6368.3444259567386
 21
3832.6871880199669
  0
LINE
  8
_0-1_
  6
CONTINUOUS
 62
    7
 10
5408.3444259567386
 20
3912.6871880199665
 11
5408.3444259567386
 21
3862.6871880199665
  0
LINE
  8
_0-1_
  6
CONTINUOUS
 62
    7
 10
6328.3444259567386
 20
3912.6871880199665
 11
5408.3444259567386
 21
3912.6871880199665
  0
LINE
  8
_0-1_
  6
CONTINUOUS
 62
    7
 10
6328.3444259567386
 20
3912.6871880199665
 11
6328.3444259567386
 21
3862.6871880199665
  0
LINE
  8
_0-1_
  6
CONTINUOUS
 62
    7
 10
6318.3444259567386
 20
4912.6871880199669
 11
5418.3444259567386
 21
4912.6871880199669
  0
LINE
  8
_0-1_
  6
CONTINUOUS
 62
    7
 10
5418.3444259567386
 20
4912.6871880199669
 11
5418.3444259567386
 21
3912.6871880199665
  0
LINE
  8
_0-1_
  6
CONTINUOUS
 62
    7
 10
6318.3444259567386
 20
4912.6871880199669
 11
6318.3444259567386
 21
3912.6871880199665
  0
LINE
  8
_0-1_
  6
CONTINUOUS
 62
    7
 10
5443.3444259567386
 20
4887.6871880199669
 11
5443.3444259567386
 21
3912.6871880199665
  0
LINE
  8
_0-1_
  6
CONTINUOUS
 62
    7
 10
6293.3444259567386
 20
4887.6871880199669
 11
6293.3444259567386
 21
3912.6871880199665
  0
LINE
  8
_0-1_
  6
CONTINUOUS
 62
    7
 10
6293.3444259567386
 20
4887.6871880199669
 11
5443.3444259567386
 21
4887.6871880199669
  0
LINE
  8
_0-1_
  6
CONTINUOUS
 62
    7
 10
6228.3444259567386
 20
3112.6871880199665
 11
6288.3444259567386
 21
3112.6871880199665
  0
LINE
  8
_0-1_
  6
CONTINUOUS
 62
    7
 10
6228.3444259567386
 20
3732.6871880199669
 11
5508.3444259567386
 21
3732.6871880199669
  0
LINE
  8
_0-1_
  6
CONTINUOUS
 62
    7
 10
6228.3444259567386
 20
3645.6871880199669
 11
5508.3444259567386
 21
3645.6871880199669
  0
LINE
  8
_0-1_
  6
CONTINUOUS
 62
    7
 10
6228.3444259567386
 20
3627.6871880199665
 11
5508.3444259567386
 21
3627.6871880199665
  0
LINE
  8
_0-1_
  6
CONTINUOUS
 62
    7
 10
5448.3444259567395
 20
3832.6871880199669
 11
5448.3444259567395
 21
3112.6871880199665
  0
LINE
  8
_0-1_
  6
CONTINUOUS
 62
    7
 10
5508.3444259567386
 20
3832.6871880199669
 11
5508.3444259567386
 21
3112.6871880199665
  0
LINE
  8
_0-1_
  6
CONTINUOUS
 62
    7
 10
6228.3444259567386
 20
3112.6871880199665
 11
6288.3444259567386
 21
3112.6871880199665
  0
LINE
  8
_0-1_
  6
CONTINUOUS
 62
    7
 10
6228.3444259567386
 20
3832.6871880199669
 11
6228.3444259567386
 21
3112.6871880199665
  0
LINE
  8
_0-1_
  6
CONTINUOUS
 62
    7
 10
6288.3444259567386
 20
3832.6871880199669
 11
6288.3444259567386
 21
3112.6871880199665
  0
LINE
  8
_0-1_
  6
CONTINUOUS
 62
    7
 10
5568.3444259567386
 20
4812.6871880199669
 11
5568.3444259567386
 21
3912.6871880199665
  0
LINE
  8
_0-1_
  6
CONTINUOUS
 62
    7
 10
6168.3444259567386
 20
4812.6871880199669
 11
6168.3444259567386
 21
3912.6871880199665
  0
LINE
  8
_0-1_
  6
CONTINUOUS
 62
    7
 10
5568.3444259567386
 20
4056.6871880199669
 11
5443.3444259567386
 21
4056.6871880199669
  0
LINE
  8
_0-1_
  6
CONTINUOUS
 62
    7
 10
5568.3444259567386
 20
4016.6871880199665
 11
5443.3444259567386
 21
4016.6871880199665
  0
LINE
  8
_0-1_
  6
CONTINUOUS
 62
    7
 10
5568.3444259567386
 20
4697.6871880199669
 11
5443.3444259567386
 21
4697.6871880199669
  0
LINE
  8
_0-1_
  6
CONTINUOUS
 62
    7
 10
5568.3444259567386
 20
4657.6871880199669
 11
5443.3444259567386
 21
4657.6871880199669
  0
LINE
  8
_0-1_
  6
CONTINUOUS
 62
    7
 10
5470.8444259567386
 20
4252.1871880199669
 11
5470.8444259567386
 21
4462.1871880199669
  0
LINE
  8
_0-1_
  6
CONTINUOUS
 62
    7
 10
5540.8444259567386
 20
4462.1871880199669
 11
5470.8444259567386
 21
4462.1871880199669
  0
LINE
  8
_0-1_
  6
CONTINUOUS
 62
    7
 10
5540.8444259567386
 20
4252.1871880199669
 11
5540.8444259567386
 21
4462.1871880199669
  0
LINE
  8
_0-1_
  6
CONTINUOUS
 62
    7
 10
5468.3444259567386
 20
4242.1871880199669
 11
5468.3444259567386
 21
4252.1871880199669
  0
LINE
  8
_0-1_
  6
CONTINUOUS
 62
    7
 10
5472.8444259567386
 20
4467.1871880199669
 11
5472.8444259567386
 21
4462.1871880199669
  0
LINE
  8
_0-1_
  6
CONTINUOUS
 62
    7
 10
5490.8444259567386
 20
4467.1871880199669
 11
5490.8444259567386
 21
4657.6871880199669
  0
LINE
  8
_0-1_
  6
CONTINUOUS
 62
    7
 10
5520.8444259567386
 20
4467.1871880199669
 11
5520.8444259567386
 21
4657.6871880199669
  0
LINE
  8
_0-1_
  6
CONTINUOUS
 62
    7
 10
5490.8444259567386
 20
4056.6871880199669
 11
5490.8444259567386
 21
4242.1871880199669
  0
LINE
  8
_0-1_
  6
CONTINUOUS
 62
    7
 10
5520.8444259567386
 20
4056.6871880199669
 11
5520.8444259567386
 21
4242.1871880199669
  0
LINE
  8
_0-1_
  6
CONTINUOUS
 62
    7
 10
5543.3444259567386
 20
4242.1871880199669
 11
5543.3444259567386
 21
4252.1871880199669
  0
LINE
  8
_0-1_
  6
CONTINUOUS
 62
    7
 10
5543.3444259567386
 20
4252.1871880199669
 11
5468.3444259567386
 21
4252.1871880199669
  0
LINE
  8
_0-1_
  6
CONTINUOUS
 62
    7
 10
5538.8444259567395
 20
4467.1871880199669
 11
5472.8444259567386
 21
4467.1871880199669
  0
LINE
  8
_0-1_
  6
CONTINUOUS
 62
    7
 10
5538.8444259567395
 20
4467.1871880199669
 11
5538.8444259567395
 21
4462.1871880199669
  0
LINE
  8
_0-1_
  6
CONTINUOUS
 62
    7
 10
5543.3444259567386
 20
4242.1871880199669
 11
5468.3444259567386
 21
4242.1871880199669
  0
LINE
  8
_0-1_
  6
CONTINUOUS
 62
    7
 10
6168.3444259567386
 20
4056.6871880199669
 11
6293.3444259567386
 21
4056.6871880199669
  0
LINE
  8
_0-1_
  6
CONTINUOUS
 62
    7
 10
6168.3444259567386
 20
4016.6871880199665
 11
6293.3444259567386
 21
4016.6871880199665
  0
LINE
  8
_0-1_
  6
CONTINUOUS
 62
    7
 10
6168.3444259567386
 20
4697.6871880199669
 11
6293.3444259567386
 21
4697.6871880199669
  0
LINE
  8
_0-1_
  6
CONTINUOUS
 62
    7
 10
6168.3444259567386
 20
4657.6871880199669
 11
6293.3444259567386
 21
4657.6871880199669
  0
LINE
  8
_0-1_
  6
CONTINUOUS
 62
    7
 10
6265.8444259567386
 20
4252.1871880199669
 11
6265.8444259567386
 21
4462.1871880199669
  0
LINE
  8
_0-1_
  6
CONTINUOUS
 62
    7
 10
6195.8444259567386
 20
4462.1871880199669
 11
6265.8444259567386
 21
4462.1871880199669
  0
LINE
  8
_0-1_
  6
CONTINUOUS
 62
    7
 10
6195.8444259567386
 20
4252.1871880199669
 11
6195.8444259567386
 21
4462.1871880199669
  0
LINE
  8
_0-1_
  6
CONTINUOUS
 62
    7
 10
6268.3444259567386
 20
4242.1871880199669
 11
6268.3444259567386
 21
4252.1871880199669
  0
LINE
  8
_0-1_
  6
CONTINUOUS
 62
    7
 10
6263.8444259567395
 20
4467.1871880199669
 11
6263.8444259567395
 21
4462.1871880199669
  0
LINE
  8
_0-1_
  6
CONTINUOUS
 62
    7
 10
6245.8444259567386
 20
4467.1871880199669
 11
6245.8444259567386
 21
4657.6871880199669
  0
LINE
  8
_0-1_
  6
CONTINUOUS
 62
    7
 10
6215.8444259567386
 20
4467.1871880199669
 11
6215.8444259567386
 21
4657.6871880199669
  0
LINE
  8
_0-1_
  6
CONTINUOUS
 62
    7
 10
6245.8444259567386
 20
4056.6871880199669
 11
6245.8444259567386
 21
4242.1871880199669
  0
LINE
  8
_0-1_
  6
CONTINUOUS
 62
    7
 10
6215.8444259567386
 20
4056.6871880199669
 11
6215.8444259567386
 21
4242.1871880199669
  0
LINE
  8
_0-1_
  6
CONTINUOUS
 62
    7
 10
6193.3444259567386
 20
4242.1871880199669
 11
6193.3444259567386
 21
4252.1871880199669
  0
LINE
  8
_0-1_
  6
CONTINUOUS
 62
    7
 10
6193.3444259567386
 20
4252.1871880199669
 11
6268.3444259567386
 21
4252.1871880199669
  0
LINE
  8
_0-1_
  6
CONTINUOUS
 62
    7
 10
6197.8444259567386
 20
4467.1871880199669
 11
6263.8444259567395
 21
4467.1871880199669
  0
LINE
  8
_0-1_
  6
CONTINUOUS
 62
    7
 10
6197.8444259567386
 20
4467.1871880199669
 11
6197.8444259567386
 21
4462.1871880199669
  0
LINE
  8
_0-1_
  6
CONTINUOUS
 62
    7
 10
6193.3444259567386
 20
4242.1871880199669
 11
6268.3444259567386
 21
4242.1871880199669
  0
LINE
  8
_0-1_
  6
CONTINUOUS
 62
    7
 10
7405.8444259567377
 20
4252.1871880199669
 11
7405.8444259567377
 21
4242.1871880199669
  0
LINE
  8
_0-1_
  6
CONTINUOUS
 62
    7
 10
7330.8444259567377
 20
4252.1871880199669
 11
7330.8444259567377
 21
4242.1871880199669
  0
LINE
  8
_0-1_
  6
CONTINUOUS
 62
    7
 10
7330.8444259567377
 20
4252.1871880199669
 11
7333.3444259567386
 21
4252.1871880199669
  0
LINE
  8
_0-1_
  6
CONTINUOUS
 62
    7
 10
7403.3444259567386
 20
4252.1871880199669
 11
7405.8444259567377
 21
4252.1871880199669
  0
LINE
  8
_0-1_
  6
CONTINUOUS
 62
    7
 10
7330.8444259567377
 20
4242.1871880199669
 11
7333.3444259567386
 21
4242.1871880199669
  0
LINE
  8
_0-1_
  6
CONTINUOUS
 62
    7
 10
7403.3444259567386
 20
4242.1871880199669
 11
7405.8444259567377
 21
4242.1871880199669
  0
LINE
  8
_0-1_
  6
CONTINUOUS
 62
    7
 10
6158.3444259567386
 20
4802.687188019966
 11
5578.3444259567386
 21
4802.687188019966
  0
LINE
  8
_0-1_
  6
CONTINUOUS
 62
    7
 10
5578.3444259567386
 20
4802.687188019966
 11
5578.3444259567386
 21
3922.6871880199669
  0
LINE
  8
_0-1_
  6
CONTINUOUS
 62
    7
 10
6158.3444259567386
 20
3922.6871880199669
 11
5578.3444259567386
 21
3922.6871880199669
  0
LINE
  8
_0-1_
  6
CONTINUOUS
 62
    7
 10
6158.3444259567386
 20
4802.687188019966
 11
6158.3444259567386
 21
3922.6871880199669
  0
LINE
  8
_0-1_
  6
CONTINUOUS
 62
    7
 10
5368.3444259567386
 20
5955.5639075689105
 11
6368.3444259567386
 21
5955.5639075689105
  0
LINE
  8
_0-1_
  6
CONTINUOUS
 62
    7
 10
6368.3444259567386
 20
5955.5639075689105
 11
6368.3444259567386
 21
6475.5639075689105
  0
LINE
  8
_0-1_
  6
CONTINUOUS
 62
    7
 10
6368.3444259567386
 20
6475.5639075689105
 11
5368.3444259567386
 21
6475.5639075689105
  0
LINE
  8
_0-1_
  6
CONTINUOUS
 62
    7
 10
5368.3444259567386
 20
6475.5639075689105
 11
5368.3444259567386
 21
5955.5639075689105
  0
LINE
  8
_0-1_
  6
CONTINUOUS
 62
    7
 10
5408.3444259567386
 20
6170.5639075689105
 11
6328.3444259567386
 21
6170.5639075689105
  0
LINE
  8
_0-1_
  6
CONTINUOUS
 62
    7
 10
6328.3444259567386
 20
6170.5639075689105
 11
6328.3444259567386
 21
6260.5639075689105
  0
LINE
  8
_0-1_
  6
CONTINUOUS
 62
    7
 10
6328.3444259567386
 20
6260.5639075689105
 11
5408.3444259567386
 21
6260.5639075689105
  0
LINE
  8
_0-1_
  6
CONTINUOUS
 62
    7
 10
5408.3444259567386
 20
6260.5639075689105
 11
5408.3444259567386
 21
6170.5639075689105
  0
LINE
  8
_0-1_
  6
CONTINUOUS
 62
    7
 10
5418.3444259567386
 20
6180.5639075689105
 11
6318.3444259567386
 21
6180.5639075689105
  0
LINE
  8
_0-1_
  6
CONTINUOUS
 62
    7
 10
6318.3444259567386
 20
6180.5639075689105
 11
6318.3444259567386
 21
6250.5639075689105
  0
LINE
  8
_0-1_
  6
CONTINUOUS
 62
    7
 10
6318.3444259567386
 20
6250.5639075689105
 11
5418.3444259567386
 21
6250.5639075689105
  0
LINE
  8
_0-1_
  6
CONTINUOUS
 62
    7
 10
5418.3444259567386
 20
6250.5639075689105
 11
5418.3444259567386
 21
6180.5639075689105
  0
LINE
  8
_0-1_
  6
CONTINUOUS
 62
    7
 10
7198.3444259567395
 20
3145.0120495544897
 11
7204.5913296490999
 21
3149.2818321553041
  0
LINE
  8
_0-1_
  6
CONTINUOUS
 62
    7
 10
7204.5913296490999
 20
3149.2818321553041
 11
7215.3132681046745
 21
3156.2990441249826
  0
LINE
  8
_0-1_
  6
CONTINUOUS
 62
    7
 10
7215.3132681046745
 20
3156.2990441249826
 11
7225.9002478048542
 21
3162.3593611789479
  0
LINE
  8
_0-1_
  6
CONTINUOUS
 62
    7
 10
7225.9002478048542
 20
3162.3593611789479
 11
7236.2668518158416
 21
3166.85715362371
  0
LINE
  8
_0-1_
  6
CONTINUOUS
 62
    7
 10
7236.2668518158416
 20
3166.85715362371
 11
7246.3276632038433
 21
3169.1867917657792
  0
LINE
  8
_0-1_
  6
CONTINUOUS
 62
    7
 10
7246.3276632038433
 20
3169.1867917657792
 11
7255.9972650350619
 21
3168.7426459116668
  0
LINE
  8
_0-1_
  6
CONTINUOUS
 62
    7
 10
7255.9972650350619
 20
3168.7426459116668
 11
7261.3927231646558
 21
3166.9754438972518
  0
LINE
  8
_0-1_
  6
CONTINUOUS
 62
    7
 10
7261.3927231646558
 20
3166.9754438972518
 11
7265.1078787353599
 21
3165.0026618113493
  0
LINE
  8
_0-1_
  6
CONTINUOUS
 62
    7
 10
7265.1078787353599
 20
3165.0026618113493
 11
7271.3568934321129
 21
3160.5031304705544
  0
LINE
  8
_0-1_
  6
CONTINUOUS
 62
    7
 10
7271.3568934321129
 20
3160.5031304705544
 11
7277.4859578146816
 21
3155.1834523651964
  0
LINE
  8
_0-1_
  6
CONTINUOUS
 62
    7
 10
7277.4859578146816
 20
3155.1834523651964
 11
7283.5858360782195
 21
3149.7063695806764
  0
LINE
  8
_0-1_
  6
CONTINUOUS
 62
    7
 10
7283.5858360782195
 20
3149.7063695806764
 11
7289.7472924178801
 21
3144.7346242023937
  0
LINE
  8
_0-1_
  6
CONTINUOUS
 62
    7
 10
7289.7472924178801
 20
3144.7346242023937
 11
7296.0610910288169
 21
3140.9309583157487
  0
LINE
  8
_0-1_
  6
CONTINUOUS
 62
    7
 10
7296.0610910288169
 20
3140.9309583157487
 11
7299.8286632644895
 21
3139.5212009687993
  0
LINE
  8
_0-1_
  6
CONTINUOUS
 62
    7
 10
7299.8286632644895
 20
3139.5212009687993
 11
7303.6647013663223
 21
3138.8256960219869
  0
LINE
  8
_0-1_
  6
CONTINUOUS
 62
    7
 10
7303.6647013663223
 20
3138.8256960219869
 11
7310.4821052998386
 21
3139.1511348055701
  0
LINE
  8
_0-1_
  6
CONTINUOUS
 62
    7
 10
7310.4821052998386
 20
3139.1511348055701
 11
7317.5164295443637
 21
3141.1013409978709
  0
LINE
  8
_0-1_
  6
CONTINUOUS
 62
    7
 10
7317.5164295443637
 20
3141.1013409978709
 11
7324.7203115865786
 21
3144.321561889562
  0
LINE
  8
_0-1_
  6
CONTINUOUS
 62
    7
 10
7324.7203115865786
 20
3144.321561889562
 11
7332.0463889131615
 21
3148.4570447713163
  0
LINE
  8
_0-1_
  6
CONTINUOUS
 62
    7
 10
7332.0463889131615
 20
3148.4570447713163
 11
7339.4472990107924
 21
3153.1530369338079
  0
LINE
  8
_0-1_
  6
CONTINUOUS
 62
    7
 10
7339.4472990107924
 20
3153.1530369338079
 11
7343.7554519500127
 21
3155.9937467258706
  0
LINE
  8
_0-1_
  6
CONTINUOUS
 62
    7
 10
7341.3815305296775
 20
3160.629729519479
 11
7352.6860621906308
 21
3167.1564039169921
  0
LINE
  8
_0-1_
  6
CONTINUOUS
 62
    7
 10
7352.6860621906308
 20
3167.1564039169921
 11
7357.2891741688809
 21
3159.1835800977337
  0
LINE
  8
_0-1_
  6
CONTINUOUS
 62
    7
 10
7357.2891741688809
 20
3159.1835800977337
 11
7345.9846425079295
 21
3152.6569057002207
  0
LINE
  8
_0-1_
  6
CONTINUOUS
 62
    7
 10
7345.9846425079295
 20
3152.6569057002207
 11
7341.3815305296775
 21
3160.629729519479
  0
LINE
  8
_0-1_
  6
CONTINUOUS
 62
    7
 10
7356.5660994580085
 20
3161.3528042303519
 11
7361.301543292765
 21
3164.0868140030816
  0
LINE
  8
_0-1_
  6
CONTINUOUS
 62
    7
 10
7354.3968753253894
 20
3164.2451030738434
 11
7360.0716207628211
 21
3167.5214188797277
  0
LINE
  8
_0-1_
  6
CONTINUOUS
 62
    7
 10
7538.3444259567386
 20
3145.0120495544897
 11
7532.0975222643783
 21
3149.2818321553041
  0
LINE
  8
_0-1_
  6
CONTINUOUS
 62
    7
 10
7532.0975222643783
 20
3149.2818321553041
 11
7521.3755838088036
 21
3156.2990441249826
  0
LINE
  8
_0-1_
  6
CONTINUOUS
 62
    7
 10
7521.3755838088036
 20
3156.2990441249826
 11
7510.7886041086231
 21
3162.3593611789479
  0
LINE
  8
_0-1_
  6
CONTINUOUS
 62
    7
 10
7510.7886041086231
 20
3162.3593611789479
 11
7500.4220000976356
 21
3166.85715362371
  0
LINE
  8
_0-1_
  6
CONTINUOUS
 62
    7
 10
7500.4220000976356
 20
3166.85715362371
 11
7490.3611887096349
 21
3169.1867917657792
  0
LINE
  8
_0-1_
  6
CONTINUOUS
 62
    7
 10
7490.3611887096349
 20
3169.1867917657792
 11
7480.6915868784163
 21
3168.7426459116668
  0
LINE
  8
_0-1_
  6
CONTINUOUS
 62
    7
 10
7480.6915868784163
 20
3168.7426459116668
 11
7475.2961287488233
 21
3166.9754438972518
  0
LINE
  8
_0-1_
  6
CONTINUOUS
 62
    7
 10
7475.2961287488233
 20
3166.9754438972518
 11
7471.5809731781173
 21
3165.0026618113493
  0
LINE
  8
_0-1_
  6
CONTINUOUS
 62
    7
 10
7471.5809731781173
 20
3165.0026618113493
 11
7465.3319584813644
 21
3160.5031304705544
  0
LINE
  8
_0-1_
  6
CONTINUOUS
 62
    7
 10
7465.3319584813644
 20
3160.5031304705544
 11
7459.2028940987957
 21
3155.1834523651964
  0
LINE
  8
_0-1_
  6
CONTINUOUS
 62
    7
 10
7459.2028940987957
 20
3155.1834523651964
 11
7453.1030158352578
 21
3149.7063695806764
  0
LINE
  8
_0-1_
  6
CONTINUOUS
 62
    7
 10
7453.1030158352578
 20
3149.7063695806764
 11
7446.9415594955972
 21
3144.7346242023937
  0
LINE
  8
_0-1_
  6
CONTINUOUS
 62
    7
 10
7446.9415594955972
 20
3144.7346242023937
 11
7440.6277608846613
 21
3140.9309583157487
  0
LINE
  8
_0-1_
  6
CONTINUOUS
 62
    7
 10
7440.6277608846613
 20
3140.9309583157487
 11
7436.8601886489887
 21
3139.5212009687993
  0
LINE
  8
_0-1_
  6
CONTINUOUS
 62
    7
 10
7436.8601886489887
 20
3139.5212009687993
 11
7433.0241505471549
 21
3138.8256960219869
  0
LINE
  8
_0-1_
  6
CONTINUOUS
 62
    7
 10
7433.0241505471549
 20
3138.8256960219869
 11
7426.2067466136386
 21
3139.1511348055701
  0
LINE
  8
_0-1_
  6
CONTINUOUS
 62
    7
 10
7426.2067466136386
 20
3139.1511348055701
 11
7419.1724223691135
 21
3141.1013409978709
  0
LINE
  8
_0-1_
  6
CONTINUOUS
 62
    7
 10
7419.1724223691135
 20
3141.1013409978709
 11
7411.9685403268986
 21
3144.321561889562
  0
LINE
  8
_0-1_
  6
CONTINUOUS
 62
    7
 10
7411.9685403268986
 20
3144.321561889562
 11
7404.6424630003157
 21
3148.4570447713163
  0
LINE
  8
_0-1_
  6
CONTINUOUS
 62
    7
 10
7404.6424630003157
 20
3148.4570447713163
 11
7397.2415529026848
 21
3153.1530369338079
  0
LINE
  8
_0-1_
  6
CONTINUOUS
 62
    7
 10
7397.2415529026848
 20
3153.1530369338079
 11
7392.9333999634655
 21
3155.9937467258706
  0
LINE
  8
_0-1_
  6
CONTINUOUS
 62
    7
 10
7395.3073213837997
 20
3160.629729519479
 11
7384.0027897228483
 21
3167.1564039169921
  0
LINE
  8
_0-1_
  6
CONTINUOUS
 62
    7
 10
7384.0027897228483
 20
3167.1564039169921
 11
7379.3996777445973
 21
3159.1835800977337
  0
LINE
  8
_0-1_
  6
CONTINUOUS
 62
    7
 10
7379.3996777445973
 20
3159.1835800977337
 11
7390.7042094055487
 21
3152.6569057002207
  0
LINE
  8
_0-1_
  6
CONTINUOUS
 62
    7
 10
7390.7042094055487
 20
3152.6569057002207
 11
7395.3073213837997
 21
3160.629729519479
  0
LINE
  8
_0-1_
  6
CONTINUOUS
 62
    7
 10
7380.1227524554688
 20
3161.3528042303519
 11
7375.3873086207122
 21
3164.0868140030816
  0
LINE
  8
_0-1_
  6
CONTINUOUS
 62
    7
 10
7382.2919765880879
 20
3164.2451030738434
 11
7376.6172311506562
 21
3167.5214188797277
  0
LINE
  8
_0-0_
  6
CENTER1
 62
    5
 10
5868.3444259567386
 20
7264.8533308683054
 11
5868.3444259567386
 21
2224.254329204412
  0
LINE
  8
_0-0_
  6
CENTER1
 62
    5
 10
7368.3444259567377
 20
7264.8533308683054
 11
7368.3444259567377
 21
2224.254329204412
  0
ENDSEC
  0
EOF
