  0
SECTION
  2
HEADER
  9
$ACADVER
  1
AC1009
  9
$INSBASE
 10
0
 20
0
 30
0
  9
$EXTMIN
 10
0
 20
0
  9
$EXTMAX
 10
14850
 20
10500
  9
$LIMMIN
 10
0
 20
0
  9
$LIMMAX
 10
14850
 20
10500
  9
$LTSCALE
 40
50
  0
ENDSEC
  0
SECTION
  2
TABLES
  0
TABLE
  2
LTYPE
 70
     9
  0
LTYPE
  2
CONTINUOUS
 70
    64
  3
実線
 72
    65
 73
     0
 40
0.0
  0
LTYPE
  2
DASHED1
 70
    64
  3
--  --  --  --  --  --  --  --  
 72
    65
 73
     2
 40
2.5
 49
1.25
 49
-1.25
  0
LTYPE
  2
DASHED2
 70
    64
  3
----    ----    ----    ----    
 72
    65
 73
     2
 40
5.0
 49
2.5
 49
-2.5
  0
LTYPE
  2
DASHED3
 70
    64
  3
------  ------  ------  ------  
 72
    65
 73
     2
 40
5.0
 49
3.75
 49
-1.25
  0
LTYPE
  2
CENTER1
 70
    64
  3
----- - ----- - ----- - ----- - 
 72
    65
 73
     4
 40
10.0
 49
6.25
 49
-1.25
 49
1.25
 49
-1.25
  0
LTYPE
  2
CENTER2
 70
    64
  3
----------  --  ----------  --  
 72
    65
 73
     4
 40
20.0
 49
12.5
 49
-2.5
 49
2.5
 49
-2.5
  0
LTYPE
  2
PHANTOM1
 70
    64
  3
--- - - --- - - --- - - --- - - 
 72
    65
 73
     6
 40
10.0
 49
3.25
 49
-1.25
 49
1.25
 49
-1.25
 49
1.25
 49
-1.25
  0
LTYPE
  2
PHANTOM2
 70
    64
  3
--------  -  -  --------  -  -  
 72
    65
 73
     6
 40
20.0
 49
10.0
 49
-2.5
 49
1.25
 49
-2.5
 49
1.25
 49
-2.5
  0
LTYPE
  2
DOT
 70
    64
  3
-   -   -   -   -   -   -   -   
 72
    65
 73
     2
 40
2.5
 49
0.625
 49
-1.875
  0
LTYPE
  2
DUMMY
 70
    64
  3
ダミー
 72
    65
 73
     0
 40
0.0
  0
LTYPE
  2
RAND1
 70
    64
  3
ランダム線1
 72
    65
 73
     4
 40
10.0
 49
1.0
 49
-2.0
 49
3.0
 49
-4.0
  0
LTYPE
  2
RAND2
 70
    64
  3
ランダム線2
 72
    65
 73
     4
 40
14.0
 49
2.0
 49
-3.0
 49
4.0
 49
-5.0
  0
LTYPE
  2
RAND3
 70
    64
  3
ランダム線3
 72
    65
 73
     4
 40
18.0
 49
3.0
 49
-4.0
 49
5.0
 49
-6.0
  0
LTYPE
  2
RAND4
 70
    64
  3
ランダム線4
 72
    65
 73
     4
 40
22.0
 49
4.0
 49
-5.0
 49
6.0
 49
-7.0
  0
LTYPE
  2
RAND5
 70
    64
  3
ランダム線5
 72
    65
 73
     4
 40
26.0
 49
5.0
 49
-6.0
 49
7.0
 49
-8.0
  0
LTYPE
  2
LONG1
 70
    64
  3
----------  --  ----------  --  
 72
    65
 73
     4
 40
40.0
 49
32.5
 49
-2.5
 49
2.5
 49
-2.5
  0
LTYPE
  2
LONG2
 70
    64
  3
--------  -  -  --------  -  -  
 72
    65
 73
     6
 40
40.0
 49
30.0
 49
-2.5
 49
1.25
 49
-2.5
 49
1.25
 49
-2.5
  0
LTYPE
  2
LONG3
 70
    64
  3
+++++++++++++++..+++++++++++++++
 72
    65
 73
     2
 40
40.0
 49
37.5
 49
-2.5
  0
LTYPE
  2
LONG4
 70
    64
  3
+++++++++++++++..+++++++++++++++
 72
    65
 73
     2
 40
80.0
 49
75.0
 49
-5.0
  0
LTYPE
  2
LONG5
 70
    64
  3
----------  --  ----------  --  
 72
    65
 73
     4
 40
60.0
 49
37.5
 49
-7.5
 49
7.5
 49
-7.5
  0
LTYPE
  2
dashed
 70
   64
  3
-------   -------------   ------
 72
   65
 73
    2
 40
7.5
 49
6
 49
-1.5
  0
LTYPE
  2
dashed_spaced
 70
   64
  3
----        --------        ----
 72
   65
 73
    2
 40
12
 49
6
 49
-6
  0
LTYPE
  2
long_dashed_dotted
 70
   64
  3
------------- --- --------------
 72
   65
 73
    4
 40
15.25
 49
12
 49
-1.5
 49
0.25
 49
-1.5
  0
LTYPE
  2
long_dashed_double-dotted
 70
   64
  3
----------- --- --- ------------
 72
   65
 73
    6
 40
17
 49
12
 49
-1.5
 49
0.25
 49
-1.5
 49
0.25
 49
-1.5
  0
LTYPE
  2
long_dashed_triplicate-dotted
 70
   64
  3
--------- --- --- --- ----------
 72
   65
 73
    8
 40
18.75
 49
12
 49
-1.5
 49
0.25
 49
-1.5
 49
0.25
 49
-1.5
 49
0.25
 49
-1.5
  0
LTYPE
  2
dotted
 70
   64
  3
   -       -       -       -    
 72
   65
 73
    2
 40
1.75
 49
0.25
 49
-1.5
  0
LTYPE
  2
chain
 70
   64
  3
-------------- -- --------------
 72
   65
 73
    4
 40
18.5
 49
12
 49
-1.5
 49
3.5
 49
-1.5
  0
LTYPE
  2
chain_double_dash
 70
   64
  3
------------ -- -- -------------
 72
   65
 73
    6
 40
23.5
 49
12
 49
-1.5
 49
3.5
 49
-1.5
 49
3.5
 49
-1.5
  0
LTYPE
  2
dashed_dotted
 70
   64
  3
-----------     -     ----------
 72
   65
 73
    4
 40
9.25
 49
6
 49
-1.5
 49
0.25
 49
-1.5
  0
LTYPE
  2
double-dashed_dotted
 70
   64
  3
------   -----------   -   -----
 72
   65
 73
    6
 40
16.75
 49
6
 49
-1.5
 49
6
 49
-1.5
 49
0.25
 49
-1.5
  0
LTYPE
  2
dashed_double-dotted
 70
   64
  3
---------    -    -    ---------
 72
   65
 73
    6
 40
11
 49
6
 49
-1.5
 49
0.25
 49
-1.5
 49
0.25
 49
-1.5
  0
LTYPE
  2
double-dashed_double-dotted
 70
   64
  3
-----   ---------   -   -   ----
 72
   65
 73
    8
 40
18.5
 49
6
 49
-1.5
 49
6
 49
-1.5
 49
0.25
 49
-1.5
 49
0.25
 49
-1.5
  0
LTYPE
  2
dashed_triplicate-dotted
 70
   64
  3
-------    -    -    -    ------
 72
   65
 73
    8
 40
12.75
 49
6
 49
-1.5
 49
0.25
 49
-1.5
 49
0.25
 49
-1.5
 49
0.25
 49
-1.5
  0
LTYPE
  2
double-dashed_triplicate-dotted
 70
   64
  3
-----  ---------  -  -  -  -----
 72
   65
 73
   10
 40
20.25
 49
6
 49
-1.5
 49
6
 49
-1.5
 49
0.25
 49
-1.5
 49
0.25
 49
-1.5
 49
0.25
 49
-1.5
  0
LTYPE
  2
undefined
 70
   64
  3
--------------------------------
 72
   65
 73
    0
 40
0
  0
ENDTAB
  0
TABLE
  2
STYLE
  5
3
100
AcDbSymbolTable
 70
     1
  0
STYLE
  5
10
100
AcDbSymbolTableRecord
100
AcDbTextStyleTableRecord
  2
STANDARD
 70
     0
 40
0.0
 41
1.0
 50
0.0
 71
     0
 42
0.2
  3
txt
  4
bigfont.shx
  0
STYLE
  5
26
100
AcDbSymbolTableRecord
100
AcDbTextStyleTableRecord
  2
TATEGAKI
 70
    68
 40
0.0
 41
1.0
 50
0.0
 71
     0
 42
1.0
  3
txt
  4
bigfont.shx
  0
ENDTAB
  0
TABLE
  2
LAYER
 70
    3
  0
LAYER
  2
_0-0_
 70
   64
 62
    7
  6
CONTINUOUS
  0
LAYER
  2
_0-1_
 70
   64
 62
    7
  6
CONTINUOUS
  0
LAYER
  2
ADD_LINE
 70
   64
 62
    7
  6
CONTINUOUS
  0
ENDTAB
  0
ENDSEC
  0
SECTION
  2
BLOCKS
  0
ENDSEC
  0
SECTION
  2
ENTITIES
  0
ARC
  8
_0-1_
  6
CONTINUOUS
 62
    1
 10
7504.5751584596101
 20
3523.4864082804834
 40
10
 50
90
 51
180
  0
LINE
  8
_0-1_
  6
CONTINUOUS
 62
    1
 10
7844.575158459611
 20
3798.8327247921311
 11
7844.575158459611
 21
4005.8947879682323
  0
LINE
  8
_0-1_
  6
CONTINUOUS
 62
    1
 10
5584.6786623371454
 20
3782.0405151150089
 11
5504.974517873653
 21
3782.0405151150089
  0
LINE
  8
_0-1_
  6
CONTINUOUS
 62
    1
 10
5639.4586139933308
 20
4046.9745758889103
 11
5639.955851531191
 21
4050.6378297472083
  0
LINE
  8
_0-1_
  6
CONTINUOUS
 62
    1
 10
5639.955851531191
 20
4050.6378297472083
 11
5640.2650891088415
 21
4054.1013921601475
  0
LINE
  8
_0-1_
  6
CONTINUOUS
 62
    1
 10
5640.2650891088415
 20
4054.1013921601475
 11
5640.386326726285
 21
4057.3652631277278
  0
LINE
  8
_0-1_
  6
CONTINUOUS
 62
    1
 10
5640.386326726285
 20
4057.3652631277278
 11
5640.3195643835188
 21
4060.4294426499491
  0
LINE
  8
_0-1_
  6
CONTINUOUS
 62
    1
 10
5640.3195643835188
 20
4060.4294426499491
 11
5640.0648020805438
 21
4063.2939307268111
  0
LINE
  8
_0-1_
  6
CONTINUOUS
 62
    1
 10
5640.0648020805438
 20
4063.2939307268111
 11
5639.6220398173609
 21
4065.9587273583143
  0
LINE
  8
_0-1_
  6
CONTINUOUS
 62
    1
 10
5639.6220398173609
 20
4065.9587273583143
 11
5638.991277593972
 21
4068.4238325444576
  0
LINE
  8
_0-1_
  6
CONTINUOUS
 62
    1
 10
5638.991277593972
 20
4068.4238325444576
 11
5638.1725154103706
 21
4070.6892462852425
  0
LINE
  8
_0-1_
  6
CONTINUOUS
 62
    1
 10
5638.1725154103706
 20
4070.6892462852425
 11
5637.1657532665595
 21
4072.754968580668
  0
LINE
  8
_0-1_
  6
CONTINUOUS
 62
    1
 10
5637.1657532665595
 20
4072.754968580668
 11
5635.9709911625441
 21
4074.6209994307351
  0
LINE
  8
_0-1_
  6
CONTINUOUS
 62
    1
 10
5635.9709911625441
 20
4074.6209994307351
 11
5634.5882290983172
 21
4076.2873388354419
  0
LINE
  8
_0-1_
  6
CONTINUOUS
 62
    1
 10
5634.5882290983172
 20
4076.2873388354419
 11
5633.0174670738797
 21
4077.7539867947908
  0
LINE
  8
_0-1_
  6
CONTINUOUS
 62
    1
 10
5633.0174670738797
 20
4077.7539867947908
 11
5631.2587050892362
 21
4079.0209433087794
  0
LINE
  8
_0-1_
  6
CONTINUOUS
 62
    1
 10
5631.2587050892362
 20
4079.0209433087794
 11
5629.3119431443856
 21
4080.08820837741
  0
LINE
  8
_0-1_
  6
CONTINUOUS
 62
    1
 10
5629.3119431443856
 20
4080.08820837741
 11
5627.1771812393226
 21
4080.9557820006817
  0
LINE
  8
_0-1_
  6
CONTINUOUS
 62
    1
 10
5627.1771812393226
 20
4080.9557820006817
 11
5624.8544193740527
 21
4081.6236641785936
  0
LINE
  8
_0-1_
  6
CONTINUOUS
 62
    1
 10
5624.8544193740527
 20
4081.6236641785936
 11
5622.3436575485739
 21
4082.0918549111466
  0
LINE
  8
_0-1_
  6
CONTINUOUS
 62
    1
 10
5622.3436575485739
 20
4082.0918549111466
 11
5619.6448957628872
 21
4082.3603541983402
  0
LINE
  8
_0-1_
  6
CONTINUOUS
 62
    1
 10
5619.6448957628872
 20
4082.3603541983402
 11
5616.7581340169918
 21
4082.429162040175
  0
LINE
  8
_0-1_
  6
CONTINUOUS
 62
    1
 10
5528.2408153955685
 20
3913.4864082804834
 11
5528.5483765253584
 21
3930.6811880229398
  0
LINE
  8
_0-1_
  6
CONTINUOUS
 62
    1
 10
5528.5483765253584
 20
3930.6811880229398
 11
5529.3577131525926
 21
3946.9511332140974
  0
LINE
  8
_0-1_
  6
CONTINUOUS
 62
    1
 10
5529.3577131525926
 20
3946.9511332140974
 11
5530.6688252772674
 21
3962.2962438539562
  0
LINE
  8
_0-1_
  6
CONTINUOUS
 62
    1
 10
5530.6688252772674
 20
3962.2962438539562
 11
5532.4817128993855
 21
3976.7165199425149
  0
LINE
  8
_0-1_
  6
CONTINUOUS
 62
    1
 10
5532.4817128993855
 20
3976.7165199425149
 11
5534.796376018945
 21
3990.2119614797757
  0
LINE
  8
_0-1_
  6
CONTINUOUS
 62
    1
 10
5534.796376018945
 20
3990.2119614797757
 11
5537.6128146359479
 21
4002.7825684657359
  0
LINE
  8
_0-1_
  6
CONTINUOUS
 62
    1
 10
5537.6128146359479
 20
4002.7825684657359
 11
5540.9310287503931
 21
4014.4283409003983
  0
LINE
  8
_0-1_
  6
CONTINUOUS
 62
    1
 10
5540.9310287503931
 20
4014.4283409003983
 11
5544.7510183622808
 21
4025.1492787837606
  0
LINE
  8
_0-1_
  6
CONTINUOUS
 62
    1
 10
5544.7510183622808
 20
4025.1492787837606
 11
5549.0727834716099
 21
4034.945382115824
  0
LINE
  8
_0-1_
  6
CONTINUOUS
 62
    1
 10
5549.0727834716099
 20
4034.945382115824
 11
5553.8963240783814
 21
4043.8166508965892
  0
LINE
  8
_0-1_
  6
CONTINUOUS
 62
    1
 10
5553.8963240783814
 20
4043.8166508965892
 11
5559.2216401825963
 21
4051.7630851260546
  0
LINE
  8
_0-1_
  6
CONTINUOUS
 62
    1
 10
5559.2216401825963
 20
4051.7630851260546
 11
5565.0487317842535
 21
4058.7846848042204
  0
LINE
  8
_0-1_
  6
CONTINUOUS
 62
    1
 10
5565.0487317842535
 20
4058.7846848042204
 11
5571.3775988833522
 21
4064.8814499310879
  0
LINE
  8
_0-1_
  6
CONTINUOUS
 62
    1
 10
5571.3775988833522
 20
4064.8814499310879
 11
5578.2082414798933
 21
4070.0533805066557
  0
LINE
  8
_0-1_
  6
CONTINUOUS
 62
    1
 10
5578.2082414798933
 20
4070.0533805066557
 11
5585.5406595738768
 21
4074.3004765309252
  0
LINE
  8
_0-1_
  6
CONTINUOUS
 62
    1
 10
5585.5406595738768
 20
4074.3004765309252
 11
5593.3748531653036
 21
4077.6227380038945
  0
LINE
  8
_0-1_
  6
CONTINUOUS
 62
    1
 10
5593.3748531653036
 20
4077.6227380038945
 11
5601.7108222541719
 21
4080.0201649255655
  0
LINE
  8
_0-1_
  6
CONTINUOUS
 62
    1
 10
5601.7108222541719
 20
4080.0201649255655
 11
5610.5485668404826
 21
4081.4927572959368
  0
LINE
  8
_0-1_
  6
CONTINUOUS
 62
    1
 10
5610.5485668404826
 20
4081.4927572959368
 11
5619.8880869242357
 21
4082.0405151150089
  0
LINE
  8
_0-1_
  6
CONTINUOUS
 62
    1
 10
5514.0763375243578
 20
4282.0405151150089
 11
5519.137636641457
 21
4281.7885119276889
  0
LINE
  8
_0-1_
  6
CONTINUOUS
 62
    1
 10
5519.137636641457
 20
4281.7885119276889
 11
5524.0123342740208
 21
4281.0338255808701
  0
LINE
  8
_0-1_
  6
CONTINUOUS
 62
    1
 10
5524.0123342740208
 20
4281.0338255808701
 11
5528.710249094449
 21
4279.7784408972657
  0
LINE
  8
_0-1_
  6
CONTINUOUS
 62
    1
 10
5528.710249094449
 20
4279.7784408972657
 11
5533.2411997751406
 21
4278.0243426995885
  0
LINE
  8
_0-1_
  6
CONTINUOUS
 62
    1
 10
5533.2411997751406
 20
4278.0243426995885
 11
5537.6150049885
 21
4275.7735158105515
  0
LINE
  8
_0-1_
  6
CONTINUOUS
 62
    1
 10
5537.6150049885
 20
4275.7735158105515
 11
5541.8414834069254
 21
4273.0279450528678
  0
LINE
  8
_0-1_
  6
CONTINUOUS
 62
    1
 10
5541.8414834069254
 20
4273.0279450528678
 11
5545.930453702822
 21
4269.7896152492485
  0
LINE
  8
_0-1_
  6
CONTINUOUS
 62
    1
 10
5545.930453702822
 20
4269.7896152492485
 11
5549.8917345485861
 21
4266.0605112224093
  0
LINE
  8
_0-1_
  6
CONTINUOUS
 62
    1
 10
5549.8917345485861
 20
4266.0605112224093
 11
5553.7351446166213
 21
4261.8426177950605
  0
LINE
  8
_0-1_
  6
CONTINUOUS
 62
    1
 10
5553.7351446166213
 20
4261.8426177950605
 11
5557.4705025793291
 21
4257.1379197899159
  0
LINE
  8
_0-1_
  6
CONTINUOUS
 62
    1
 10
5557.4705025793291
 20
4257.1379197899159
 11
5561.1076271091106
 21
4251.9484020296886
  0
LINE
  8
_0-1_
  6
CONTINUOUS
 62
    1
 10
5561.1076271091106
 20
4251.9484020296886
 11
5564.6563368783663
 21
4246.2760493370906
  0
LINE
  8
_0-1_
  6
CONTINUOUS
 62
    1
 10
5564.6563368783663
 20
4246.2760493370906
 11
5568.1264505594972
 21
4240.1228465348349
  0
LINE
  8
_0-1_
  6
CONTINUOUS
 62
    1
 10
5568.1264505594972
 20
4240.1228465348349
 11
5571.527786824905
 21
4233.4907784456364
  0
LINE
  8
_0-1_
  6
CONTINUOUS
 62
    1
 10
5571.527786824905
 20
4233.4907784456364
 11
5574.8701643469913
 21
4226.3818298922051
  0
LINE
  8
_0-1_
  6
CONTINUOUS
 62
    1
 10
5574.8701643469913
 20
4226.3818298922051
 11
5578.163401798156
 21
4218.7979856972543
  0
LINE
  8
_0-1_
  6
CONTINUOUS
 62
    1
 10
5578.163401798156
 20
4218.7979856972543
 11
5581.4173178508017
 21
4210.7412306834976
  0
LINE
  8
_0-1_
  6
CONTINUOUS
 62
    1
 10
5581.4173178508017
 20
4210.7412306834976
 11
5584.6417311773275
 21
4202.2135496736491
  0
LINE
  8
_0-1_
  6
CONTINUOUS
 62
    1
 10
5584.6417311773275
 20
4202.2135496736491
 11
5587.846460450136
 21
4193.216927490419
  0
LINE
  8
_0-1_
  6
CONTINUOUS
 62
    1
 10
5587.846460450136
 20
4193.216927490419
 11
5591.0413243416288
 21
4183.7533489565221
  0
LINE
  8
_0-1_
  6
CONTINUOUS
 62
    1
 10
5591.0413243416288
 20
4183.7533489565221
 11
5594.2361415242058
 21
4173.8247988946696
  0
LINE
  8
_0-1_
  6
CONTINUOUS
 62
    1
 10
5594.2361415242058
 20
4173.8247988946696
 11
5597.4407306702687
 21
4163.4332621275762
  0
LINE
  8
_0-1_
  6
CONTINUOUS
 62
    1
 10
5597.4407306702687
 20
4163.4332621275762
 11
5600.6649104522194
 21
4152.5807234779531
  0
LINE
  8
_0-1_
  6
CONTINUOUS
 62
    1
 10
5600.6649104522194
 20
4152.5807234779531
 11
5603.9184995424575
 21
4141.2691677685143
  0
LINE
  8
_0-1_
  6
CONTINUOUS
 62
    1
 10
5603.9184995424575
 20
4141.2691677685143
 11
5607.2113166133859
 21
4129.5005798219709
  0
LINE
  8
_0-1_
  6
CONTINUOUS
 62
    1
 10
5607.2113166133859
 20
4129.5005798219709
 11
5610.5531803374042
 21
4117.2769444610385
  0
LINE
  8
_0-1_
  6
CONTINUOUS
 62
    1
 10
5610.5531803374042
 20
4117.2769444610385
 11
5613.9539093869143
 21
4104.6002465084275
  0
LINE
  8
_0-1_
  6
CONTINUOUS
 62
    1
 10
5613.9539093869143
 20
4104.6002465084275
 11
5617.4233224343179
 21
4091.4724707868518
  0
LINE
  8
_0-1_
  6
CONTINUOUS
 62
    1
 10
5617.4233224343179
 20
4091.4724707868518
 11
5619.794303548706
 21
4082.3993975333401
  0
LINE
  8
_0-1_
  6
CONTINUOUS
 62
    1
 10
5616.7581340169918
 20
4082.429162040175
 11
5610.9850630884621
 21
4082.1443229276974
  0
LINE
  8
_0-1_
  6
CONTINUOUS
 62
    1
 10
5610.9850630884621
 20
4082.1443229276974
 11
5605.4605185652108
 21
4081.3836116762054
  0
LINE
  8
_0-1_
  6
CONTINUOUS
 62
    1
 10
5605.4605185652108
 20
4081.3836116762054
 11
5600.1845004472398
 21
4080.1470282856999
  0
LINE
  8
_0-1_
  6
CONTINUOUS
 62
    1
 10
5600.1845004472398
 20
4080.1470282856999
 11
5595.1570087345472
 21
4078.4345727561808
  0
LINE
  8
_0-1_
  6
CONTINUOUS
 62
    1
 10
5595.1570087345472
 20
4078.4345727561808
 11
5590.378043427133
 21
4076.2462450876478
  0
LINE
  8
_0-1_
  6
CONTINUOUS
 62
    1
 10
5590.378043427133
 20
4076.2462450876478
 11
5585.847604524999
 21
4073.5820452801008
  0
LINE
  8
_0-1_
  6
CONTINUOUS
 62
    1
 10
5585.847604524999
 20
4073.5820452801008
 11
5581.5656920281399
 21
4070.4419733335408
  0
LINE
  8
_0-1_
  6
CONTINUOUS
 62
    1
 10
5581.5656920281399
 20
4070.4419733335408
 11
5577.5323059365619
 21
4066.8260292479667
  0
LINE
  8
_0-1_
  6
CONTINUOUS
 62
    1
 10
5577.5323059365619
 20
4066.8260292479667
 11
5573.7474462502614
 21
4062.7342130233783
  0
LINE
  8
_0-1_
  6
CONTINUOUS
 62
    1
 10
5573.7474462502614
 20
4062.7342130233783
 11
5570.211112969243
 21
4058.1665246597772
  0
LINE
  8
_0-1_
  6
CONTINUOUS
 62
    1
 10
5570.211112969243
 20
4058.1665246597772
 11
5566.9233060935012
 21
4053.1229641571622
  0
LINE
  8
_0-1_
  6
CONTINUOUS
 62
    1
 10
5566.9233060935012
 20
4053.1229641571622
 11
5563.8840256230378
 21
4047.6035315155336
  0
LINE
  8
_0-1_
  6
CONTINUOUS
 62
    1
 10
5563.8840256230378
 20
4047.6035315155336
 11
5561.0932715578529
 21
4041.6082267348906
  0
LINE
  8
_0-1_
  6
CONTINUOUS
 62
    1
 10
5561.0932715578529
 20
4041.6082267348906
 11
5558.5510438979454
 21
4035.1370498152341
  0
LINE
  8
_0-1_
  6
CONTINUOUS
 62
    1
 10
5558.5510438979454
 20
4035.1370498152341
 11
5556.2573426433191
 21
4028.1900007565637
  0
LINE
  8
_0-1_
  6
CONTINUOUS
 62
    1
 10
5556.2573426433191
 20
4028.1900007565637
 11
5555.3998231056166
 21
4025.0776507509572
  0
LINE
  8
_0-1_
  6
CONTINUOUS
 62
    1
 10
5607.3011255617348
 20
3842.2990815820222
 11
5639.4586139933308
 21
4046.9745758889103
  0
LINE
  8
_0-1_
  6
CONTINUOUS
 62
    1
 10
5583.4169116294788
 20
3782.0405151150089
 11
5584.6786623371454
 21
3782.307378196329
  0
LINE
  8
_0-1_
  6
CONTINUOUS
 62
    1
 10
5584.6786623371454
 20
3782.307378196329
 11
5585.9616445101237
 21
3782.9986404261404
  0
LINE
  8
_0-1_
  6
CONTINUOUS
 62
    1
 10
5585.9616445101237
 20
3782.9986404261404
 11
5587.2658581484102
 21
3784.1143018044454
  0
LINE
  8
_0-1_
  6
CONTINUOUS
 62
    1
 10
5587.2658581484102
 20
3784.1143018044454
 11
5588.5913032520048
 21
3785.6543623312418
  0
LINE
  8
_0-1_
  6
CONTINUOUS
 62
    1
 10
5588.5913032520048
 20
3785.6543623312418
 11
5589.9379798209084
 21
3787.618822006531
  0
LINE
  8
_0-1_
  6
CONTINUOUS
 62
    1
 10
5589.9379798209084
 20
3787.618822006531
 11
5591.3058878551201
 21
3790.0076808303124
  0
LINE
  8
_0-1_
  6
CONTINUOUS
 62
    1
 10
5591.3058878551201
 20
3790.0076808303124
 11
5592.6950273546427
 21
3792.8209388025862
  0
LINE
  8
_0-1_
  6
CONTINUOUS
 62
    1
 10
5592.6950273546427
 20
3792.8209388025862
 11
5594.1053983194734
 21
3796.0585959233526
  0
LINE
  8
_0-1_
  6
CONTINUOUS
 62
    1
 10
5594.1053983194734
 20
3796.0585959233526
 11
5595.5370007496158
 21
3799.7206521926109
  0
LINE
  8
_0-1_
  6
CONTINUOUS
 62
    1
 10
5595.5370007496158
 20
3799.7206521926109
 11
5596.9898346450636
 21
3803.807107610362
  0
LINE
  8
_0-1_
  6
CONTINUOUS
 62
    1
 10
5596.9898346450636
 20
3803.807107610362
 11
5598.4639000058223
 21
3808.3179621766049
  0
LINE
  8
_0-1_
  6
CONTINUOUS
 62
    1
 10
5598.4639000058223
 20
3808.3179621766049
 11
5599.9591968318891
 21
3813.2532158913405
  0
LINE
  8
_0-1_
  6
CONTINUOUS
 62
    1
 10
5599.9591968318891
 20
3813.2532158913405
 11
5601.475725123265
 21
3818.6128687545684
  0
LINE
  8
_0-1_
  6
CONTINUOUS
 62
    1
 10
5601.475725123265
 20
3818.6128687545684
 11
5603.0134848799516
 21
3824.3969207662885
  0
LINE
  8
_0-1_
  6
CONTINUOUS
 62
    1
 10
5603.0134848799516
 20
3824.3969207662885
 11
5604.5724761019474
 21
3830.605371926501
  0
LINE
  8
_0-1_
  6
CONTINUOUS
 62
    1
 10
5604.5724761019474
 20
3830.605371926501
 11
5606.1526987892503
 21
3837.2382222352057
  0
LINE
  8
_0-1_
  6
CONTINUOUS
 62
    1
 10
5606.1526987892503
 20
3837.2382222352057
 11
5607.3011255617348
 21
3842.2990815820222
  0
LINE
  8
_0-1_
  6
CONTINUOUS
 62
    1
 10
5619.6448957628872
 20
4082.3603541983402
 11
5621.8414052975068
 21
4081.9374749532089
  0
LINE
  8
_0-1_
  6
CONTINUOUS
 62
    1
 10
5621.8414052975068
 20
4081.9374749532089
 11
5623.9555666593933
 21
4081.4267458185532
  0
LINE
  8
_0-1_
  6
CONTINUOUS
 62
    1
 10
5623.9555666593933
 20
4081.4267458185532
 11
5625.9871273873341
 21
4080.8311814647582
  0
LINE
  8
_0-1_
  6
CONTINUOUS
 62
    1
 10
5625.9871273873341
 20
4080.8311814647582
 11
5627.9358350201146
 21
4080.153796562211
  0
LINE
  8
_0-1_
  6
CONTINUOUS
 62
    1
 10
5627.9358350201146
 20
4080.153796562211
 11
5629.8014370965202
 21
4079.3976057812961
  0
LINE
  8
_0-1_
  6
CONTINUOUS
 62
    1
 10
5629.8014370965202
 20
4079.3976057812961
 11
5631.5836811553399
 21
4078.5656237924004
  0
LINE
  8
_0-1_
  6
CONTINUOUS
 62
    1
 10
5631.5836811553399
 20
4078.5656237924004
 11
5633.2823147353583
 21
4077.6608652659093
  0
LINE
  8
_0-1_
  6
CONTINUOUS
 62
    1
 10
5633.2823147353583
 20
4077.6608652659093
 11
5634.8970853753617
 21
4076.6863448722092
  0
LINE
  8
_0-1_
  6
CONTINUOUS
 62
    1
 10
5634.8970853753617
 20
4076.6863448722092
 11
5636.4277406141346
 21
4075.6450772816847
  0
LINE
  8
_0-1_
  6
CONTINUOUS
 62
    1
 10
5636.4277406141346
 20
4075.6450772816847
 11
5637.8740279904659
 21
4074.5400771647242
  0
LINE
  8
_0-1_
  6
CONTINUOUS
 62
    1
 10
5637.8740279904659
 20
4074.5400771647242
 11
5639.2356950431404
 21
4073.3743591917105
  0
LINE
  8
_0-1_
  6
CONTINUOUS
 62
    1
 10
5639.2356950431404
 20
4073.3743591917105
 11
5640.5124893109441
 21
4072.1509380330317
  0
LINE
  8
_0-1_
  6
CONTINUOUS
 62
    1
 10
5640.5124893109441
 20
4072.1509380330317
 11
5641.7041583326645
 21
4070.8728283590731
  0
LINE
  8
_0-1_
  6
CONTINUOUS
 62
    1
 10
5641.7041583326645
 20
4070.8728283590731
 11
5642.8104496470869
 21
4069.5430448402194
  0
LINE
  8
_0-1_
  6
CONTINUOUS
 62
    1
 10
5642.8104496470869
 20
4069.5430448402194
 11
5643.8311107929967
 21
4068.1646021468582
  0
LINE
  8
_0-1_
  6
CONTINUOUS
 62
    1
 10
5643.8311107929967
 20
4068.1646021468582
 11
5644.7658893091802
 21
4066.7405149493748
  0
LINE
  8
_0-1_
  6
CONTINUOUS
 62
    1
 10
5644.7658893091802
 20
4066.7405149493748
 11
5645.6145327344257
 21
4065.2737979181552
  0
LINE
  8
_0-1_
  6
CONTINUOUS
 62
    1
 10
5645.6145327344257
 20
4065.2737979181552
 11
5646.3767886075157
 21
4063.7674657235843
  0
LINE
  8
_0-1_
  6
CONTINUOUS
 62
    1
 10
5646.3767886075157
 20
4063.7674657235843
 11
5647.0524044672411
 21
4062.2245330360483
  0
LINE
  8
_0-1_
  6
CONTINUOUS
 62
    1
 10
5647.0524044672411
 20
4062.2245330360483
 11
5647.6411278523838
 21
4060.6480145259357
  0
LINE
  8
_0-1_
  6
CONTINUOUS
 62
    1
 10
5647.6411278523838
 20
4060.6480145259357
 11
5648.1427063017318
 21
4059.0409248636279
  0
LINE
  8
_0-1_
  6
CONTINUOUS
 62
    1
 10
5648.1427063017318
 20
4059.0409248636279
 11
5648.5568873540724
 21
4057.4062787195139
  0
LINE
  8
_0-1_
  6
CONTINUOUS
 62
    1
 10
5648.5568873540724
 20
4057.4062787195139
 11
5648.883418548191
 21
4055.747090763979
  0
LINE
  8
_0-1_
  6
CONTINUOUS
 62
    1
 10
5648.883418548191
 20
4055.747090763979
 11
5649.1220474228712
 21
4054.0663756674085
  0
LINE
  8
_0-1_
  6
CONTINUOUS
 62
    1
 10
5649.1220474228712
 20
4054.0663756674085
 11
5649.272521516903
 21
4052.3671481001893
  0
LINE
  8
_0-1_
  6
CONTINUOUS
 62
    1
 10
5649.272521516903
 20
4052.3671481001893
 11
5649.3345883690708
 21
4050.6524227327054
  0
LINE
  8
_0-1_
  6
CONTINUOUS
 62
    1
 10
5649.3345883690708
 20
4050.6524227327054
 11
5649.3079955181611
 21
4048.9252142353453
  0
LINE
  8
_0-1_
  6
CONTINUOUS
 62
    1
 10
5649.3079955181611
 20
4048.9252142353453
 11
5649.1924905029591
 21
4047.1885372784927
  0
LINE
  8
_0-1_
  6
CONTINUOUS
 62
    1
 10
5649.1924905029591
 20
4047.1885372784927
 11
5648.9878208622513
 21
4045.4454065325335
  0
LINE
  8
_0-1_
  6
CONTINUOUS
 62
    1
 10
5620.1256090439956
 20
3859.6826914061089
 11
5649.8450955457001
 21
4048.8408280318049
  0
LINE
  8
_0-1_
  6
CONTINUOUS
 62
    1
 10
5504.974517873653
 20
3782.0405151150089
 11
5555.3998231056166
 21
4025.0776507509577
  0
LINE
  8
_0-1_
  6
CONTINUOUS
 62
    1
 10
5514.0763375243578
 20
4282.0405151150089
 11
5323.9357741093254
 21
4282.0405151150089
  0
LINE
  8
_0-1_
  6
CONTINUOUS
 62
    1
 10
5533.2408153955685
 20
3913.4864082804834
 11
5323.9357741093254
 21
3913.4864082804834
  0
LINE
  8
_0-1_
  6
CONTINUOUS
 62
    1
 10
5513.8502787527268
 20
3823.4783997502
 11
5323.8478811971927
 21
3823.4783997502
  0
LINE
  8
_0-1_
  6
CONTINUOUS
 62
    1
 10
5506.3119107354933
 20
3788.4864082804834
 11
5323.8478811971927
 21
3788.4864082804834
  0
LINE
  8
_0-1_
  6
CONTINUOUS
 62
    1
 10
5008.4129342253209
 20
4046.9745758889103
 11
5007.9156966874607
 21
4050.6378297472083
  0
LINE
  8
_0-1_
  6
CONTINUOUS
 62
    1
 10
5007.9156966874607
 20
4050.6378297472083
 11
5007.6064591098102
 21
4054.1013921601475
  0
LINE
  8
_0-1_
  6
CONTINUOUS
 62
    1
 10
5007.6064591098102
 20
4054.1013921601475
 11
5007.4852214923667
 21
4057.3652631277278
  0
LINE
  8
_0-1_
  6
CONTINUOUS
 62
    1
 10
5007.4852214923667
 20
4057.3652631277278
 11
5007.5519838351329
 21
4060.4294426499491
  0
LINE
  8
_0-1_
  6
CONTINUOUS
 62
    1
 10
5007.5519838351329
 20
4060.4294426499491
 11
5007.8067461381079
 21
4063.2939307268111
  0
LINE
  8
_0-1_
  6
CONTINUOUS
 62
    1
 10
5007.8067461381079
 20
4063.2939307268111
 11
5008.2495084012908
 21
4065.9587273583143
  0
LINE
  8
_0-1_
  6
CONTINUOUS
 62
    1
 10
5008.2495084012908
 20
4065.9587273583143
 11
5008.8802706246797
 21
4068.4238325444576
  0
LINE
  8
_0-1_
  6
CONTINUOUS
 62
    1
 10
5008.8802706246797
 20
4068.4238325444576
 11
5009.6990328082811
 21
4070.6892462852425
  0
LINE
  8
_0-1_
  6
CONTINUOUS
 62
    1
 10
5009.6990328082811
 20
4070.6892462852425
 11
5010.7057949520922
 21
4072.754968580668
  0
LINE
  8
_0-1_
  6
CONTINUOUS
 62
    1
 10
5010.7057949520922
 20
4072.754968580668
 11
5011.9005570561076
 21
4074.6209994307351
  0
LINE
  8
_0-1_
  6
CONTINUOUS
 62
    1
 10
5011.9005570561076
 20
4074.6209994307351
 11
5013.2833191203345
 21
4076.2873388354419
  0
LINE
  8
_0-1_
  6
CONTINUOUS
 62
    1
 10
5013.2833191203345
 20
4076.2873388354419
 11
5014.854081144772
 21
4077.7539867947908
  0
LINE
  8
_0-1_
  6
CONTINUOUS
 62
    1
 10
5014.854081144772
 20
4077.7539867947908
 11
5016.6128431294155
 21
4079.0209433087794
  0
LINE
  8
_0-1_
  6
CONTINUOUS
 62
    1
 10
5016.6128431294155
 20
4079.0209433087794
 11
5018.5596050742661
 21
4080.08820837741
  0
LINE
  8
_0-1_
  6
CONTINUOUS
 62
    1
 10
5018.5596050742661
 20
4080.08820837741
 11
5020.6943669793291
 21
4080.9557820006817
  0
LINE
  8
_0-1_
  6
CONTINUOUS
 62
    1
 10
5020.6943669793291
 20
4080.9557820006817
 11
5023.017128844599
 21
4081.6236641785936
  0
LINE
  8
_0-1_
  6
CONTINUOUS
 62
    1
 10
5023.017128844599
 20
4081.6236641785936
 11
5025.5278906700778
 21
4082.0918549111466
  0
LINE
  8
_0-1_
  6
CONTINUOUS
 62
    1
 10
5025.5278906700778
 20
4082.0918549111466
 11
5028.2266524557645
 21
4082.3603541983402
  0
LINE
  8
_0-1_
  6
CONTINUOUS
 62
    1
 10
5028.2266524557645
 20
4082.3603541983402
 11
5031.1134142016599
 21
4082.429162040175
  0
LINE
  8
_0-1_
  6
CONTINUOUS
 62
    1
 10
5119.6307328230832
 20
3913.4864082804834
 11
5119.3231716932933
 21
3930.6811880229398
  0
LINE
  8
_0-1_
  6
CONTINUOUS
 62
    1
 10
5119.3231716932933
 20
3930.6811880229398
 11
5118.5138350660591
 21
3946.9511332140974
  0
LINE
  8
_0-1_
  6
CONTINUOUS
 62
    1
 10
5118.5138350660591
 20
3946.9511332140974
 11
5117.2027229413843
 21
3962.2962438539562
  0
LINE
  8
_0-1_
  6
CONTINUOUS
 62
    1
 10
5117.2027229413843
 20
3962.2962438539562
 11
5115.3898353192662
 21
3976.7165199425149
  0
LINE
  8
_0-1_
  6
CONTINUOUS
 62
    1
 10
5115.3898353192662
 20
3976.7165199425149
 11
5113.0751721997067
 21
3990.2119614797757
  0
LINE
  8
_0-1_
  6
CONTINUOUS
 62
    1
 10
5113.0751721997067
 20
3990.2119614797757
 11
5110.2587335827038
 21
4002.7825684657359
  0
LINE
  8
_0-1_
  6
CONTINUOUS
 62
    1
 10
5110.2587335827038
 20
4002.7825684657359
 11
5106.9405194682586
 21
4014.4283409003983
  0
LINE
  8
_0-1_
  6
CONTINUOUS
 62
    1
 10
5106.9405194682586
 20
4014.4283409003983
 11
5103.1205298563709
 21
4025.1492787837606
  0
LINE
  8
_0-1_
  6
CONTINUOUS
 62
    1
 10
5103.1205298563709
 20
4025.1492787837606
 11
5098.7987647470418
 21
4034.945382115824
  0
LINE
  8
_0-1_
  6
CONTINUOUS
 62
    1
 10
5098.7987647470418
 20
4034.945382115824
 11
5093.9752241402703
 21
4043.8166508965892
  0
LINE
  8
_0-1_
  6
CONTINUOUS
 62
    1
 10
5093.9752241402703
 20
4043.8166508965892
 11
5088.6499080360554
 21
4051.7630851260546
  0
LINE
  8
_0-1_
  6
CONTINUOUS
 62
    1
 10
5088.6499080360554
 20
4051.7630851260546
 11
5082.8228164343982
 21
4058.7846848042204
  0
LINE
  8
_0-1_
  6
CONTINUOUS
 62
    1
 10
5082.8228164343982
 20
4058.7846848042204
 11
5076.4939493352995
 21
4064.8814499310879
  0
LINE
  8
_0-1_
  6
CONTINUOUS
 62
    1
 10
5076.4939493352995
 20
4064.8814499310879
 11
5069.6633067387584
 21
4070.0533805066557
  0
LINE
  8
_0-1_
  6
CONTINUOUS
 62
    1
 10
5069.6633067387584
 20
4070.0533805066557
 11
5062.3308886447749
 21
4074.3004765309252
  0
LINE
  8
_0-1_
  6
CONTINUOUS
 62
    1
 10
5062.3308886447749
 20
4074.3004765309252
 11
5054.496695053348
 21
4077.6227380038945
  0
LINE
  8
_0-1_
  6
CONTINUOUS
 62
    1
 10
5054.496695053348
 20
4077.6227380038945
 11
5046.1607259644798
 21
4080.0201649255655
  0
LINE
  8
_0-1_
  6
CONTINUOUS
 62
    1
 10
5046.1607259644798
 20
4080.0201649255655
 11
5037.3229813781691
 21
4081.4927572959368
  0
LINE
  8
_0-1_
  6
CONTINUOUS
 62
    1
 10
5037.3229813781691
 20
4081.4927572959368
 11
5027.983461294416
 21
4082.0405151150089
  0
LINE
  8
_0-1_
  6
CONTINUOUS
 62
    1
 10
5133.7952106942939
 20
4282.0405151150089
 11
5128.7339115771938
 21
4281.7885119276889
  0
LINE
  8
_0-1_
  6
CONTINUOUS
 62
    1
 10
5128.7339115771938
 20
4281.7885119276889
 11
5123.85921394463
 21
4281.0338255808701
  0
LINE
  8
_0-1_
  6
CONTINUOUS
 62
    1
 10
5123.85921394463
 20
4281.0338255808701
 11
5119.1612991242027
 21
4279.7784408972657
  0
LINE
  8
_0-1_
  6
CONTINUOUS
 62
    1
 10
5119.1612991242027
 20
4279.7784408972657
 11
5114.6303484435111
 21
4278.0243426995885
  0
LINE
  8
_0-1_
  6
CONTINUOUS
 62
    1
 10
5114.6303484435111
 20
4278.0243426995885
 11
5110.2565432301517
 21
4275.7735158105515
  0
LINE
  8
_0-1_
  6
CONTINUOUS
 62
    1
 10
5110.2565432301517
 20
4275.7735158105515
 11
5106.0300648117263
 21
4273.0279450528678
  0
LINE
  8
_0-1_
  6
CONTINUOUS
 62
    1
 10
5106.0300648117263
 20
4273.0279450528678
 11
5101.9410945158297
 21
4269.7896152492485
  0
LINE
  8
_0-1_
  6
CONTINUOUS
 62
    1
 10
5101.9410945158297
 20
4269.7896152492485
 11
5097.9798136700656
 21
4266.0605112224093
  0
LINE
  8
_0-1_
  6
CONTINUOUS
 62
    1
 10
5097.9798136700656
 20
4266.0605112224093
 11
5094.1364036020304
 21
4261.8426177950605
  0
LINE
  8
_0-1_
  6
CONTINUOUS
 62
    1
 10
5094.1364036020304
 20
4261.8426177950605
 11
5090.4010456393225
 21
4257.1379197899159
  0
LINE
  8
_0-1_
  6
CONTINUOUS
 62
    1
 10
5090.4010456393225
 20
4257.1379197899159
 11
5086.7639211095411
 21
4251.9484020296886
  0
LINE
  8
_0-1_
  6
CONTINUOUS
 62
    1
 10
5086.7639211095411
 20
4251.9484020296886
 11
5083.2152113402854
 21
4246.2760493370906
  0
LINE
  8
_0-1_
  6
CONTINUOUS
 62
    1
 10
5083.2152113402854
 20
4246.2760493370906
 11
5079.7450976591545
 21
4240.1228465348349
  0
LINE
  8
_0-1_
  6
CONTINUOUS
 62
    1
 10
5079.7450976591545
 20
4240.1228465348349
 11
5076.3437613937458
 21
4233.4907784456364
  0
LINE
  8
_0-1_
  6
CONTINUOUS
 62
    1
 10
5076.3437613937458
 20
4233.4907784456364
 11
5073.0013838716604
 21
4226.3818298922051
  0
LINE
  8
_0-1_
  6
CONTINUOUS
 62
    1
 10
5073.0013838716604
 20
4226.3818298922051
 11
5069.7081464204957
 21
4218.7979856972543
  0
LINE
  8
_0-1_
  6
CONTINUOUS
 62
    1
 10
5069.7081464204957
 20
4218.7979856972543
 11
5066.45423036785
 21
4210.7412306834976
  0
LINE
  8
_0-1_
  6
CONTINUOUS
 62
    1
 10
5066.45423036785
 20
4210.7412306834976
 11
5063.2298170413242
 21
4202.2135496736491
  0
LINE
  8
_0-1_
  6
CONTINUOUS
 62
    1
 10
5063.2298170413242
 20
4202.2135496736491
 11
5060.0250877685157
 21
4193.216927490419
  0
LINE
  8
_0-1_
  6
CONTINUOUS
 62
    1
 10
5060.0250877685157
 20
4193.216927490419
 11
5056.8302238770229
 21
4183.7533489565221
  0
LINE
  8
_0-1_
  6
CONTINUOUS
 62
    1
 10
5056.8302238770229
 20
4183.7533489565221
 11
5053.6354066944459
 21
4173.8247988946696
  0
LINE
  8
_0-1_
  6
CONTINUOUS
 62
    1
 10
5053.6354066944459
 20
4173.8247988946696
 11
5050.4308175483829
 21
4163.4332621275762
  0
LINE
  8
_0-1_
  6
CONTINUOUS
 62
    1
 10
5050.4308175483829
 20
4163.4332621275762
 11
5047.2066377664323
 21
4152.5807234779531
  0
LINE
  8
_0-1_
  6
CONTINUOUS
 62
    1
 10
5047.2066377664323
 20
4152.5807234779531
 11
5043.9530486761942
 21
4141.2691677685143
  0
LINE
  8
_0-1_
  6
CONTINUOUS
 62
    1
 10
5043.9530486761942
 20
4141.2691677685143
 11
5040.6602316052658
 21
4129.5005798219709
  0
LINE
  8
_0-1_
  6
CONTINUOUS
 62
    1
 10
5040.6602316052658
 20
4129.5005798219709
 11
5037.3183678812475
 21
4117.2769444610385
  0
LINE
  8
_0-1_
  6
CONTINUOUS
 62
    1
 10
5037.3183678812475
 20
4117.2769444610385
 11
5033.9176388317373
 21
4104.6002465084275
  0
LINE
  8
_0-1_
  6
CONTINUOUS
 62
    1
 10
5033.9176388317373
 20
4104.6002465084275
 11
5030.4482257843338
 21
4091.4724707868518
  0
LINE
  8
_0-1_
  6
CONTINUOUS
 62
    1
 10
5030.4482257843338
 20
4091.4724707868518
 11
5028.0772446699457
 21
4082.3993975333401
  0
LINE
  8
_0-1_
  6
CONTINUOUS
 62
    1
 10
5031.1134142016599
 20
4082.429162040175
 11
5036.8864851301896
 21
4082.1443229276974
  0
LINE
  8
_0-1_
  6
CONTINUOUS
 62
    1
 10
5036.8864851301896
 20
4082.1443229276974
 11
5042.4110296534409
 21
4081.3836116762054
  0
LINE
  8
_0-1_
  6
CONTINUOUS
 62
    1
 10
5042.4110296534409
 20
4081.3836116762054
 11
5047.6870477714119
 21
4080.1470282856999
  0
LINE
  8
_0-1_
  6
CONTINUOUS
 62
    1
 10
5047.6870477714119
 20
4080.1470282856999
 11
5052.7145394841045
 21
4078.4345727561808
  0
LINE
  8
_0-1_
  6
CONTINUOUS
 62
    1
 10
5052.7145394841045
 20
4078.4345727561808
 11
5057.4935047915187
 21
4076.2462450876478
  0
LINE
  8
_0-1_
  6
CONTINUOUS
 62
    1
 10
5057.4935047915187
 20
4076.2462450876478
 11
5062.0239436936527
 21
4073.5820452801008
  0
LINE
  8
_0-1_
  6
CONTINUOUS
 62
    1
 10
5062.0239436936527
 20
4073.5820452801008
 11
5066.3058561905118
 21
4070.4419733335408
  0
LINE
  8
_0-1_
  6
CONTINUOUS
 62
    1
 10
5066.3058561905118
 20
4070.4419733335408
 11
5070.3392422820898
 21
4066.8260292479667
  0
LINE
  8
_0-1_
  6
CONTINUOUS
 62
    1
 10
5070.3392422820898
 20
4066.8260292479667
 11
5074.1241019683894
 21
4062.7342130233783
  0
LINE
  8
_0-1_
  6
CONTINUOUS
 62
    1
 10
5074.1241019683894
 20
4062.7342130233783
 11
5077.6604352494087
 21
4058.1665246597772
  0
LINE
  8
_0-1_
  6
CONTINUOUS
 62
    1
 10
5077.6604352494087
 20
4058.1665246597772
 11
5080.9482421251505
 21
4053.1229641571622
  0
LINE
  8
_0-1_
  6
CONTINUOUS
 62
    1
 10
5080.9482421251505
 20
4053.1229641571622
 11
5083.9875225956139
 21
4047.6035315155336
  0
LINE
  8
_0-1_
  6
CONTINUOUS
 62
    1
 10
5083.9875225956139
 20
4047.6035315155336
 11
5086.7782766607988
 21
4041.6082267348906
  0
LINE
  8
_0-1_
  6
CONTINUOUS
 62
    1
 10
5086.7782766607988
 20
4041.6082267348906
 11
5089.3205043207063
 21
4035.1370498152341
  0
LINE
  8
_0-1_
  6
CONTINUOUS
 62
    1
 10
5089.3205043207063
 20
4035.1370498152341
 11
5091.6142055753326
 21
4028.1900007565637
  0
LINE
  8
_0-1_
  6
CONTINUOUS
 62
    1
 10
5091.6142055753326
 20
4028.1900007565637
 11
5092.4717251130351
 21
4025.0776507509572
  0
LINE
  8
_0-1_
  6
CONTINUOUS
 62
    1
 10
5040.5704226569169
 20
3842.2990815820222
 11
5008.4129342253209
 21
4046.9745758889103
  0
LINE
  8
_0-1_
  6
CONTINUOUS
 62
    1
 10
5064.4546365891729
 20
3782.0405151150089
 11
5063.1928858815063
 21
3782.307378196329
  0
LINE
  8
_0-1_
  6
CONTINUOUS
 62
    1
 10
5063.1928858815063
 20
3782.307378196329
 11
5061.909903708528
 21
3782.9986404261404
  0
LINE
  8
_0-1_
  6
CONTINUOUS
 62
    1
 10
5061.909903708528
 20
3782.9986404261404
 11
5060.6056900702415
 21
3784.1143018044454
  0
LINE
  8
_0-1_
  6
CONTINUOUS
 62
    1
 10
5060.6056900702415
 20
3784.1143018044454
 11
5059.2802449666469
 21
3785.6543623312418
  0
LINE
  8
_0-1_
  6
CONTINUOUS
 62
    1
 10
5059.2802449666469
 20
3785.6543623312418
 11
5057.9335683977433
 21
3787.618822006531
  0
LINE
  8
_0-1_
  6
CONTINUOUS
 62
    1
 10
5057.9335683977433
 20
3787.618822006531
 11
5056.5656603635316
 21
3790.0076808303124
  0
LINE
  8
_0-1_
  6
CONTINUOUS
 62
    1
 10
5056.5656603635316
 20
3790.0076808303124
 11
5055.176520864009
 21
3792.8209388025862
  0
LINE
  8
_0-1_
  6
CONTINUOUS
 62
    1
 10
5055.176520864009
 20
3792.8209388025862
 11
5053.7661498991783
 21
3796.0585959233526
  0
LINE
  8
_0-1_
  6
CONTINUOUS
 62
    1
 10
5053.7661498991783
 20
3796.0585959233526
 11
5052.3345474690359
 21
3799.7206521926109
  0
LINE
  8
_0-1_
  6
CONTINUOUS
 62
    1
 10
5052.3345474690359
 20
3799.7206521926109
 11
5050.8817135735881
 21
3803.807107610362
  0
LINE
  8
_0-1_
  6
CONTINUOUS
 62
    1
 10
5050.8817135735881
 20
3803.807107610362
 11
5049.4076482128294
 21
3808.3179621766049
  0
LINE
  8
_0-1_
  6
CONTINUOUS
 62
    1
 10
5049.4076482128294
 20
3808.3179621766049
 11
5047.9123513867617
 21
3813.2532158913405
  0
LINE
  8
_0-1_
  6
CONTINUOUS
 62
    1
 10
5047.9123513867617
 20
3813.2532158913405
 11
5046.3958230953867
 21
3818.6128687545684
  0
LINE
  8
_0-1_
  6
CONTINUOUS
 62
    1
 10
5046.3958230953867
 20
3818.6128687545684
 11
5044.8580633386991
 21
3824.3969207662885
  0
LINE
  8
_0-1_
  6
CONTINUOUS
 62
    1
 10
5044.8580633386991
 20
3824.3969207662885
 11
5043.2990721167043
 21
3830.605371926501
  0
LINE
  8
_0-1_
  6
CONTINUOUS
 62
    1
 10
5043.2990721167043
 20
3830.605371926501
 11
5041.7188494294005
 21
3837.2382222352057
  0
LINE
  8
_0-1_
  6
CONTINUOUS
 62
    1
 10
5041.7188494294005
 20
3837.2382222352057
 11
5040.5704226569169
 21
3842.2990815820222
  0
LINE
  8
_0-1_
  6
CONTINUOUS
 62
    1
 10
5142.8970303449987
 20
3782.0405151150089
 11
5092.4717251130351
 21
4025.0776507509577
  0
LINE
  8
_0-1_
  6
CONTINUOUS
 62
    1
 10
5063.1928858815063
 20
3782.0405151150089
 11
5142.8970303449987
 21
3782.0405151150089
  0
LINE
  8
_0-1_
  6
CONTINUOUS
 62
    1
 10
5133.7952106942939
 20
4282.0405151150089
 11
5323.9357741093254
 21
4282.0405151150089
  0
LINE
  8
_0-1_
  6
CONTINUOUS
 62
    1
 10
5114.6307328230832
 20
3913.4864082804834
 11
5323.9357741093254
 21
3913.4864082804834
  0
LINE
  8
_0-1_
  6
CONTINUOUS
 62
    1
 10
5134.021269465924
 20
3823.4783997502
 11
5324.0236670214581
 21
3823.4783997502
  0
LINE
  8
_0-1_
  6
CONTINUOUS
 62
    1
 10
5141.5596374831584
 20
3788.4864082804834
 11
5324.0236670214581
 21
3788.4864082804834
  0
LINE
  8
_0-1_
  6
CONTINUOUS
 62
    1
 10
5618.4786582104862
 20
3851.7771202980916
 11
5620.122575293718
 21
3859.6831680522741
  0
LINE
  8
_0-1_
  6
CONTINUOUS
 62
    1
 10
5616.8559725925661
 20
3844.2954716924028
 11
5618.4786582104862
 21
3851.7771202980916
  0
LINE
  8
_0-1_
  6
CONTINUOUS
 62
    1
 10
5615.2545184399542
 20
3837.2382222352057
 11
5616.8559725925661
 21
3844.2954716924028
  0
LINE
  8
_0-1_
  6
CONTINUOUS
 62
    1
 10
5613.6742957526512
 20
3830.605371926501
 11
5615.2545184399542
 21
3837.2382222352057
  0
LINE
  8
_0-1_
  6
CONTINUOUS
 62
    1
 10
5612.1153045306555
 20
3824.3969207662885
 11
5613.6742957526512
 21
3830.605371926501
  0
LINE
  8
_0-1_
  6
CONTINUOUS
 62
    1
 10
5611.8732338411473
 20
3823.4864082804834
 11
5612.1153045306555
 21
3824.3969207662885
  0
LINE
  8
_0-1_
  6
CONTINUOUS
 62
    1
 10
5610.7395383079829
 20
3820.9252397571631
 11
5611.8732338411473
 21
3823.4864082804834
  0
LINE
  8
_0-1_
  6
CONTINUOUS
 62
    1
 10
5609.5709667892679
 20
3818.4063762890319
 11
5610.7395383079829
 21
3820.9252397571631
  0
LINE
  8
_0-1_
  6
CONTINUOUS
 62
    1
 10
5608.3675192850023
 20
3815.9298178760891
 11
5609.5709667892679
 21
3818.4063762890319
  0
LINE
  8
_0-1_
  6
CONTINUOUS
 62
    1
 10
5607.1291957951862
 20
3813.4955645183368
 11
5608.3675192850023
 21
3815.9298178760891
  0
LINE
  8
_0-1_
  6
CONTINUOUS
 62
    1
 10
5605.8559963198195
 20
3811.1036162157729
 11
5607.1291957951862
 21
3813.4955645183368
  0
LINE
  8
_0-1_
  6
CONTINUOUS
 62
    1
 10
5604.5479208589013
 20
3808.7539729683981
 11
5605.8559963198195
 21
3811.1036162157729
  0
LINE
  8
_0-1_
  6
CONTINUOUS
 62
    1
 10
5603.2049694124335
 20
3806.4466347762136
 11
5604.5479208589013
 21
3808.7539729683981
  0
LINE
  8
_0-1_
  6
CONTINUOUS
 62
    1
 10
5601.8271419804132
 20
3804.1816016392177
 11
5603.2049694124335
 21
3806.4466347762136
  0
LINE
  8
_0-1_
  6
CONTINUOUS
 62
    1
 10
5600.4144385628442
 20
3801.9588735574102
 11
5601.8271419804132
 21
3804.1816016392177
  0
LINE
  8
_0-1_
  6
CONTINUOUS
 62
    1
 10
5598.9668591597238
 20
3799.7784505307927
 11
5600.4144385628442
 21
3801.9588735574102
  0
LINE
  8
_0-1_
  6
CONTINUOUS
 62
    1
 10
5597.4844037710527
 20
3797.6403325593637
 11
5598.9668591597238
 21
3799.7784505307927
  0
LINE
  8
_0-1_
  6
CONTINUOUS
 62
    1
 10
5595.9670723968311
 20
3795.5445196431256
 11
5597.4844037710527
 21
3797.6403325593637
  0
LINE
  8
_0-1_
  6
CONTINUOUS
 62
    1
 10
5594.414865037058
 20
3793.491011782075
 11
5595.9670723968311
 21
3795.5445196431256
  0
LINE
  8
_0-1_
  6
CONTINUOUS
 62
    1
 10
5592.8277816917343
 20
3791.4798089762135
 11
5594.414865037058
 21
3793.491011782075
  0
LINE
  8
_0-1_
  6
CONTINUOUS
 62
    1
 10
5591.2058223608601
 20
3789.5109112255427
 11
5592.8277816917343
 21
3791.4798089762135
  0
LINE
  8
_0-1_
  6
CONTINUOUS
 62
    1
 10
5590.6539889265541
 20
3788.8692311182217
 11
5591.2058223608601
 21
3789.5109112255427
  0
LINE
  8
_0-1_
  6
CONTINUOUS
 62
    1
 10
5028.2266524557645
 20
4082.3603541983402
 11
5026.0301429211449
 21
4081.9374749532089
  0
LINE
  8
_0-1_
  6
CONTINUOUS
 62
    1
 10
5026.0301429211449
 20
4081.9374749532089
 11
5023.9159815592575
 21
4081.4267458185532
  0
LINE
  8
_0-1_
  6
CONTINUOUS
 62
    1
 10
5023.9159815592575
 20
4081.4267458185532
 11
5021.8844208313176
 21
4080.8311814647582
  0
LINE
  8
_0-1_
  6
CONTINUOUS
 62
    1
 10
5021.8844208313176
 20
4080.8311814647582
 11
5019.9357131985371
 21
4080.153796562211
  0
LINE
  8
_0-1_
  6
CONTINUOUS
 62
    1
 10
5019.9357131985371
 20
4080.153796562211
 11
5018.0701111221315
 21
4079.3976057812961
  0
LINE
  8
_0-1_
  6
CONTINUOUS
 62
    1
 10
5018.0701111221315
 20
4079.3976057812961
 11
5016.2878670633118
 21
4078.5656237924004
  0
LINE
  8
_0-1_
  6
CONTINUOUS
 62
    1
 10
5016.2878670633118
 20
4078.5656237924004
 11
5014.5892334832934
 21
4077.6608652659093
  0
LINE
  8
_0-1_
  6
CONTINUOUS
 62
    1
 10
5014.5892334832934
 20
4077.6608652659093
 11
5012.97446284329
 21
4076.6863448722092
  0
LINE
  8
_0-1_
  6
CONTINUOUS
 62
    1
 10
5012.97446284329
 20
4076.6863448722092
 11
5011.4438076045171
 21
4075.6450772816847
  0
LINE
  8
_0-1_
  6
CONTINUOUS
 62
    1
 10
5011.4438076045171
 20
4075.6450772816847
 11
5009.9975202281857
 21
4074.5400771647242
  0
LINE
  8
_0-1_
  6
CONTINUOUS
 62
    1
 10
5009.9975202281857
 20
4074.5400771647242
 11
5008.6358531755113
 21
4073.3743591917105
  0
LINE
  8
_0-1_
  6
CONTINUOUS
 62
    1
 10
5008.6358531755113
 20
4073.3743591917105
 11
5007.3590589077066
 21
4072.1509380330317
  0
LINE
  8
_0-1_
  6
CONTINUOUS
 62
    1
 10
5007.3590589077066
 20
4072.1509380330317
 11
5006.1673898859872
 21
4070.8728283590731
  0
LINE
  8
_0-1_
  6
CONTINUOUS
 62
    1
 10
5006.1673898859872
 20
4070.8728283590731
 11
5005.0610985715648
 21
4069.5430448402194
  0
LINE
  8
_0-1_
  6
CONTINUOUS
 62
    1
 10
5005.0610985715648
 20
4069.5430448402194
 11
5004.040437425655
 21
4068.1646021468582
  0
LINE
  8
_0-1_
  6
CONTINUOUS
 62
    1
 10
5004.040437425655
 20
4068.1646021468582
 11
5003.1056589094715
 21
4066.7405149493748
  0
LINE
  8
_0-1_
  6
CONTINUOUS
 62
    1
 10
5003.1056589094715
 20
4066.7405149493748
 11
5002.257015484226
 21
4065.2737979181552
  0
LINE
  8
_0-1_
  6
CONTINUOUS
 62
    1
 10
5002.257015484226
 20
4065.2737979181552
 11
5001.4947596111351
 21
4063.7674657235843
  0
LINE
  8
_0-1_
  6
CONTINUOUS
 62
    1
 10
5001.4947596111351
 20
4063.7674657235843
 11
5000.8191437514106
 21
4062.2245330360483
  0
LINE
  8
_0-1_
  6
CONTINUOUS
 62
    1
 10
5000.8191437514106
 20
4062.2245330360483
 11
5000.2304203662679
 21
4060.6480145259357
  0
LINE
  8
_0-1_
  6
CONTINUOUS
 62
    1
 10
5000.2304203662679
 20
4060.6480145259357
 11
4999.7288419169199
 21
4059.0409248636279
  0
LINE
  8
_0-1_
  6
CONTINUOUS
 62
    1
 10
4999.7288419169199
 20
4059.0409248636279
 11
4999.3146608645784
 21
4057.4062787195139
  0
LINE
  8
_0-1_
  6
CONTINUOUS
 62
    1
 10
4999.3146608645784
 20
4057.4062787195139
 11
4998.9881296704607
 21
4055.747090763979
  0
LINE
  8
_0-1_
  6
CONTINUOUS
 62
    1
 10
4998.9881296704607
 20
4055.747090763979
 11
4998.7495007957805
 21
4054.0663756674085
  0
LINE
  8
_0-1_
  6
CONTINUOUS
 62
    1
 10
4998.7495007957805
 20
4054.0663756674085
 11
4998.5990267017487
 21
4052.3671481001893
  0
LINE
  8
_0-1_
  6
CONTINUOUS
 62
    1
 10
4998.5990267017487
 20
4052.3671481001893
 11
4998.5369598495809
 21
4050.6524227327054
  0
LINE
  8
_0-1_
  6
CONTINUOUS
 62
    1
 10
4998.5369598495809
 20
4050.6524227327054
 11
4998.5635527004906
 21
4048.9252142353453
  0
LINE
  8
_0-1_
  6
CONTINUOUS
 62
    1
 10
4998.5635527004906
 20
4048.9252142353453
 11
4998.6790577156926
 21
4047.1885372784927
  0
LINE
  8
_0-1_
  6
CONTINUOUS
 62
    1
 10
4998.6790577156926
 20
4047.1885372784927
 11
4998.8837273564004
 21
4045.4454065325335
  0
LINE
  8
_0-1_
  6
CONTINUOUS
 62
    1
 10
5027.7459391746561
 20
3859.6826914061089
 11
4998.0264526729516
 21
4048.8408280318049
  0
LINE
  8
_0-1_
  6
CONTINUOUS
 62
    1
 10
5029.3928900081655
 20
3851.7771202980916
 11
5027.7489729249337
 21
3859.6831680522741
  0
LINE
  8
_0-1_
  6
CONTINUOUS
 62
    1
 10
5031.0155756260856
 20
3844.2954716924028
 11
5029.3928900081655
 21
3851.7771202980916
  0
LINE
  8
_0-1_
  6
CONTINUOUS
 62
    1
 10
5032.6170297786975
 20
3837.2382222352057
 11
5031.0155756260856
 21
3844.2954716924028
  0
LINE
  8
_0-1_
  6
CONTINUOUS
 62
    1
 10
5034.1972524660005
 20
3830.605371926501
 11
5032.6170297786975
 21
3837.2382222352057
  0
LINE
  8
_0-1_
  6
CONTINUOUS
 62
    1
 10
5035.7562436879962
 20
3824.3969207662885
 11
5034.1972524660005
 21
3830.605371926501
  0
LINE
  8
_0-1_
  6
CONTINUOUS
 62
    1
 10
5035.9983143775044
 20
3823.4864082804834
 11
5035.7562436879962
 21
3824.3969207662885
  0
LINE
  8
_0-1_
  6
CONTINUOUS
 62
    1
 10
5037.1320099106679
 20
3820.9252397571631
 11
5035.9983143775044
 21
3823.4864082804834
  0
LINE
  8
_0-1_
  6
CONTINUOUS
 62
    1
 10
5038.3005814293838
 20
3818.4063762890319
 11
5037.1320099106679
 21
3820.9252397571631
  0
LINE
  8
_0-1_
  6
CONTINUOUS
 62
    1
 10
5039.5040289336494
 20
3815.9298178760891
 11
5038.3005814293838
 21
3818.4063762890319
  0
LINE
  8
_0-1_
  6
CONTINUOUS
 62
    1
 10
5040.7423524234655
 20
3813.4955645183368
 11
5039.5040289336494
 21
3815.9298178760891
  0
LINE
  8
_0-1_
  6
CONTINUOUS
 62
    1
 10
5042.0155518988322
 20
3811.1036162157729
 11
5040.7423524234655
 21
3813.4955645183368
  0
LINE
  8
_0-1_
  6
CONTINUOUS
 62
    1
 10
5043.3236273597504
 20
3808.7539729683981
 11
5042.0155518988322
 21
3811.1036162157729
  0
LINE
  8
_0-1_
  6
CONTINUOUS
 62
    1
 10
5044.6665788062182
 20
3806.4466347762136
 11
5043.3236273597504
 21
3808.7539729683981
  0
LINE
  8
_0-1_
  6
CONTINUOUS
 62
    1
 10
5046.0444062382376
 20
3804.1816016392177
 11
5044.6665788062182
 21
3806.4466347762136
  0
LINE
  8
_0-1_
  6
CONTINUOUS
 62
    1
 10
5047.4571096558075
 20
3801.9588735574102
 11
5046.0444062382376
 21
3804.1816016392177
  0
LINE
  8
_0-1_
  6
CONTINUOUS
 62
    1
 10
5048.9046890589279
 20
3799.7784505307927
 11
5047.4571096558075
 21
3801.9588735574102
  0
LINE
  8
_0-1_
  6
CONTINUOUS
 62
    1
 10
5050.387144447599
 20
3797.6403325593637
 11
5048.9046890589279
 21
3799.7784505307927
  0
LINE
  8
_0-1_
  6
CONTINUOUS
 62
    1
 10
5051.9044758218206
 20
3795.5445196431256
 11
5050.387144447599
 21
3797.6403325593637
  0
LINE
  8
_0-1_
  6
CONTINUOUS
 62
    1
 10
5053.4566831815937
 20
3793.491011782075
 11
5051.9044758218206
 21
3795.5445196431256
  0
LINE
  8
_0-1_
  6
CONTINUOUS
 62
    1
 10
5055.0437665269174
 20
3791.4798089762135
 11
5053.4566831815937
 21
3793.491011782075
  0
LINE
  8
_0-1_
  6
CONTINUOUS
 62
    1
 10
5056.6657258577916
 20
3789.5109112255427
 11
5055.0437665269174
 21
3791.4798089762135
  0
LINE
  8
_0-1_
  6
CONTINUOUS
 62
    1
 10
5057.2175592920967
 20
3788.8692311182217
 11
5056.6657258577916
 21
3789.5109112255427
  0
LINE
  8
_0-1_
  6
CONTINUOUS
 62
    1
 10
8456.534776767352
 20
4149.1110701213902
 11
8452.7434364314213
 21
4135.1641425126545
  0
LINE
  8
_0-1_
  6
CONTINUOUS
 62
    1
 10
8459.9655471948809
 20
4162.3672652625019
 11
8456.534776767352
 21
4149.1110701213902
  0
LINE
  8
_0-1_
  6
CONTINUOUS
 62
    1
 10
8463.0357477140078
 20
4174.9327279359895
 11
8459.9655471948809
 21
4162.3672652625019
  0
LINE
  8
_0-1_
  6
CONTINUOUS
 62
    1
 10
8465.7453783247383
 20
4186.807458141855
 11
8463.0357477140078
 21
4174.9327279359895
  0
LINE
  8
_0-1_
  6
CONTINUOUS
 62
    1
 10
8468.0944390270688
 20
4197.9914558800956
 11
8465.7453783247383
 21
4186.807458141855
  0
LINE
  8
_0-1_
  6
CONTINUOUS
 62
    1
 10
8470.0829298209974
 20
4208.484721150714
 11
8468.0944390270688
 21
4197.9914558800956
  0
LINE
  8
_0-1_
  6
CONTINUOUS
 62
    1
 10
8471.7108507065295
 20
4218.2872539537084
 11
8470.0829298209974
 21
4208.484721150714
  0
LINE
  8
_0-1_
  6
CONTINUOUS
 62
    1
 10
8472.9782016836543
 20
4227.3990542890797
 11
8471.7108507065295
 21
4218.2872539537084
  0
LINE
  8
_0-1_
  6
CONTINUOUS
 62
    1
 10
8473.8849827523845
 20
4235.820122156827
 11
8472.9782016836543
 21
4227.3990542890797
  0
LINE
  8
_0-1_
  6
CONTINUOUS
 62
    1
 10
8474.431193912711
 20
4243.5504575569512
 11
8473.8849827523845
 21
4235.820122156827
  0
LINE
  8
_0-1_
  6
CONTINUOUS
 62
    1
 10
8474.6168351646375
 20
4250.5900604894505
 11
8474.431193912711
 21
4243.5504575569512
  0
LINE
  8
_0-1_
  6
CONTINUOUS
 62
    1
 10
8474.4419065081638
 20
4256.9389309543285
 11
8474.6168351646375
 21
4250.5900604894505
  0
LINE
  8
_0-1_
  6
CONTINUOUS
 62
    1
 10
8473.9064079432919
 20
4262.5970689515807
 11
8474.4419065081638
 21
4256.9389309543285
  0
LINE
  8
_0-1_
  6
CONTINUOUS
 62
    1
 10
8473.01033947002
 20
4267.5644744812116
 11
8473.9064079432919
 21
4262.5970689515807
  0
LINE
  8
_0-1_
  6
CONTINUOUS
 62
    1
 10
8471.7537010883461
 20
4271.8411475432176
 11
8473.01033947002
 21
4267.5644744812116
  0
LINE
  8
_0-1_
  6
CONTINUOUS
 62
    1
 10
8470.1364927982704
 20
4275.4270881376005
 11
8471.7537010883461
 21
4271.8411475432176
  0
LINE
  8
_0-1_
  6
CONTINUOUS
 62
    1
 10
8468.1587145997946
 20
4278.3222962643604
 11
8470.1364927982704
 21
4275.4270881376005
  0
LINE
  8
_0-1_
  6
CONTINUOUS
 62
    1
 10
8465.8203664929224
 20
4280.5267719234962
 11
8468.1587145997946
 21
4278.3222962643604
  0
LINE
  8
_0-1_
  6
CONTINUOUS
 62
    1
 10
8463.1214484776483
 20
4282.0405151150089
 11
8465.8203664929224
 21
4280.5267719234962
  0
LINE
  8
_0-1_
  6
CONTINUOUS
 62
    1
 10
8370.4920255100151
 20
3823.210380589358
 11
8456.4281698215473
 21
4149.1391786835438
  0
LINE
  8
_0-1_
  6
CONTINUOUS
 62
    1
 10
8370.4920255100151
 20
3823.210380589358
 11
8368.8820747125865
 21
3819.3741163221362
  0
LINE
  8
_0-1_
  6
CONTINUOUS
 62
    1
 10
8368.8820747125865
 20
3819.3741163221362
 11
8366.8855789764584
 21
3815.7233441929434
  0
LINE
  8
_0-1_
  6
CONTINUOUS
 62
    1
 10
8366.8855789764584
 20
3815.7233441929434
 11
8364.5025383016273
 21
3812.2580642017792
  0
LINE
  8
_0-1_
  6
CONTINUOUS
 62
    1
 10
8364.5025383016273
 20
3812.2580642017792
 11
8361.7329526880949
 21
3808.9782763486428
  0
LINE
  8
_0-1_
  6
CONTINUOUS
 62
    1
 10
8361.7329526880949
 20
3808.9782763486428
 11
8358.5768221358594
 21
3805.883980633535
  0
LINE
  8
_0-1_
  6
CONTINUOUS
 62
    1
 10
8358.5768221358594
 20
3805.883980633535
 11
8355.0341466449227
 21
3802.9751770564558
  0
LINE
  8
_0-1_
  6
CONTINUOUS
 62
    1
 10
8355.0341466449227
 20
3802.9751770564558
 11
8351.1049262152828
 21
3800.2518656174052
  0
LINE
  8
_0-1_
  6
CONTINUOUS
 62
    1
 10
8351.1049262152828
 20
3800.2518656174052
 11
8346.7891608469417
 21
3797.7140463163828
  0
LINE
  8
_0-1_
  6
CONTINUOUS
 62
    1
 10
8346.7891608469417
 20
3797.7140463163828
 11
8342.0868505398976
 21
3795.3617191533881
  0
LINE
  8
_0-1_
  6
CONTINUOUS
 62
    1
 10
8342.0868505398976
 20
3795.3617191533881
 11
8336.9979952941503
 21
3793.1948841284225
  0
LINE
  8
_0-1_
  6
CONTINUOUS
 62
    1
 10
8336.9979952941503
 20
3793.1948841284225
 11
8331.5225951097018
 21
3791.2135412414855
  0
LINE
  8
_0-1_
  6
CONTINUOUS
 62
    1
 10
8331.5225951097018
 20
3791.2135412414855
 11
8325.660649986552
 21
3789.4176904925766
  0
LINE
  8
_0-1_
  6
CONTINUOUS
 62
    1
 10
8325.660649986552
 20
3789.4176904925766
 11
8319.4121599246992
 21
3787.807331881696
  0
LINE
  8
_0-1_
  6
CONTINUOUS
 62
    1
 10
8319.4121599246992
 20
3787.807331881696
 11
8312.777124924145
 21
3786.382465408843
  0
LINE
  8
_0-1_
  6
CONTINUOUS
 62
    1
 10
8312.777124924145
 20
3786.382465408843
 11
8305.7555449848878
 21
3785.14309107402
  0
LINE
  8
_0-1_
  6
CONTINUOUS
 62
    1
 10
8305.7555449848878
 20
3785.14309107402
 11
8298.3474201069293
 21
3784.0892088772252
  0
LINE
  8
_0-1_
  6
CONTINUOUS
 62
    1
 10
8298.3474201069293
 20
3784.0892088772252
 11
8290.5527502902678
 21
3783.2208188184582
  0
LINE
  8
_0-1_
  6
CONTINUOUS
 62
    1
 10
8290.5527502902678
 20
3783.2208188184582
 11
8282.3715355349032
 21
3782.5379208977188
  0
LINE
  8
_0-1_
  6
CONTINUOUS
 62
    1
 10
8282.3715355349032
 20
3782.5379208977188
 11
8273.8037758408373
 21
3782.0405151150089
  0
LINE
  8
_0-1_
  6
CONTINUOUS
 62
    1
 10
8244.575158459611
 20
4081.9598880056674
 11
8247.8700764582209
 21
4082.5819397027763
  0
LINE
  8
_0-1_
  6
CONTINUOUS
 62
    1
 10
8247.8700764582209
 20
4082.5819397027763
 11
8251.7080381969117
 21
4084.2601980992008
  0
LINE
  8
_0-1_
  6
CONTINUOUS
 62
    1
 10
8251.7080381969117
 20
4084.2601980992008
 11
8256.0370975155038
 21
4086.9014697451953
  0
LINE
  8
_0-1_
  6
CONTINUOUS
 62
    1
 10
8256.0370975155038
 20
4086.9014697451953
 11
8260.8072825159525
 21
4090.4155382537142
  0
LINE
  8
_0-1_
  6
CONTINUOUS
 62
    1
 10
8260.8072825159525
 20
4090.4155382537142
 11
8265.9705955623431
 21
4094.7151643004067
  0
LINE
  8
_0-1_
  6
CONTINUOUS
 62
    1
 10
8265.9705955623431
 20
4094.7151643004067
 11
8271.4810132808925
 21
4099.7160856236205
  0
LINE
  8
_0-1_
  6
CONTINUOUS
 62
    1
 10
8271.4810132808925
 20
4099.7160856236205
 11
8277.2944865599475
 21
4105.3370170244034
  0
LINE
  8
_0-1_
  6
CONTINUOUS
 62
    1
 10
8277.2944865599475
 20
4105.3370170244034
 11
8283.3689405499863
 21
4111.4996503664943
  0
LINE
  8
_0-1_
  6
CONTINUOUS
 62
    1
 10
8283.3689405499863
 20
4111.4996503664943
 11
8289.6642746636189
 21
4118.1286545763387
  0
LINE
  8
_0-1_
  6
CONTINUOUS
 62
    1
 10
8289.6642746636189
 20
4118.1286545763387
 11
8296.1423625755833
 21
4125.1516756430728
  0
LINE
  8
_0-1_
  6
CONTINUOUS
 62
    1
 10
8296.1423625755833
 20
4125.1516756430728
 11
8302.7670522227509
 21
4132.4993366185354
  0
LINE
  8
_0-1_
  6
CONTINUOUS
 62
    1
 10
8302.7670522227509
 20
4132.4993366185354
 11
8309.5041658041227
 21
4140.1052376172584
  0
LINE
  8
_0-1_
  6
CONTINUOUS
 62
    1
 10
8309.5041658041227
 20
4140.1052376172584
 11
8316.3214997808318
 21
4147.9059558164754
  0
LINE
  8
_0-1_
  6
CONTINUOUS
 62
    1
 10
8316.3214997808318
 20
4147.9059558164754
 11
8323.1888248761388
 21
4155.8410454561154
  0
LINE
  8
_0-1_
  6
CONTINUOUS
 62
    1
 10
8323.1888248761388
 20
4155.8410454561154
 11
8330.0778860754435
 21
4163.8530378388068
  0
LINE
  8
_0-1_
  6
CONTINUOUS
 62
    1
 10
8330.0778860754435
 20
4163.8530378388068
 11
8336.9624026262645
 21
4171.8874413298736
  0
LINE
  8
_0-1_
  6
CONTINUOUS
 62
    1
 10
8336.9624026262645
 20
4171.8874413298736
 11
8343.8180680382593
 21
4179.8927413573392
  0
LINE
  8
_0-1_
  6
CONTINUOUS
 62
    1
 10
8343.8180680382593
 20
4179.8927413573392
 11
8350.6225500832188
 21
4187.8204004119234
  0
LINE
  8
_0-1_
  6
CONTINUOUS
 62
    1
 10
8350.6225500832188
 20
4187.8204004119234
 11
8357.3554907950529
 21
4195.6248580470465
  0
LINE
  8
_0-1_
  6
CONTINUOUS
 62
    1
 10
8357.3554907950529
 20
4195.6248580470465
 11
8363.9985064698158
 21
4203.2635308788231
  0
LINE
  8
_0-1_
  6
CONTINUOUS
 62
    1
 10
8363.9985064698158
 20
4203.2635308788231
 11
8370.5351876656841
 21
4210.6968125860676
  0
LINE
  8
_0-1_
  6
CONTINUOUS
 62
    1
 10
8370.5351876656841
 20
4210.6968125860676
 11
8376.9510992029682
 21
4217.8880739102906
  0
LINE
  8
_0-1_
  6
CONTINUOUS
 62
    1
 10
8376.9510992029682
 20
4217.8880739102906
 11
8383.2337801641079
 21
4224.8036626557023
  0
LINE
  8
_0-1_
  6
CONTINUOUS
 62
    1
 10
8383.2337801641079
 20
4224.8036626557023
 11
8389.3727438936767
 21
4231.4129036892091
  0
LINE
  8
_0-1_
  6
CONTINUOUS
 62
    1
 10
8389.3727438936767
 20
4231.4129036892091
 11
8395.3594779983741
 21
4237.6880989404153
  0
LINE
  8
_0-1_
  6
CONTINUOUS
 62
    1
 10
8395.3594779983741
 20
4237.6880989404153
 11
8401.1874443470369
 21
4243.6045274016251
  0
LINE
  8
_0-1_
  6
CONTINUOUS
 62
    1
 10
8401.1874443470369
 20
4243.6045274016251
 11
8406.8520790706261
 21
4249.1404451278368
  0
LINE
  8
_0-1_
  6
CONTINUOUS
 62
    1
 10
8406.8520790706261
 20
4249.1404451278368
 11
8412.3507925622398
 21
4254.2770852367494
  0
LINE
  8
_0-1_
  6
CONTINUOUS
 62
    1
 10
8412.3507925622398
 20
4254.2770852367494
 11
8417.6829694771022
 21
4258.9986579087563
  0
LINE
  8
_0-1_
  6
CONTINUOUS
 62
    1
 10
8417.6829694771022
 20
4258.9986579087563
 11
8422.8499687325693
 21
4263.2923503869551
  0
LINE
  8
_0-1_
  6
CONTINUOUS
 62
    1
 10
8422.8499687325693
 20
4263.2923503869551
 11
8427.8551235081286
 21
4267.1483269771315
  0
LINE
  8
_0-1_
  6
CONTINUOUS
 62
    1
 10
8427.8551235081286
 20
4267.1483269771315
 11
8432.703741245401
 21
4270.5597290477781
  0
LINE
  8
_0-1_
  6
CONTINUOUS
 62
    1
 10
8432.703741245401
 20
4270.5597290477781
 11
8437.4031036481338
 21
4273.5226750300799
  0
LINE
  8
_0-1_
  6
CONTINUOUS
 62
    1
 10
8437.4031036481338
 20
4273.5226750300799
 11
8441.9624666822074
 21
4276.0362604179218
  0
LINE
  8
_0-1_
  6
CONTINUOUS
 62
    1
 10
8441.9624666822074
 20
4276.0362604179218
 11
8446.3930605756323
 21
4278.1025577678847
  0
LINE
  8
_0-1_
  6
CONTINUOUS
 62
    1
 10
8446.3930605756323
 20
4278.1025577678847
 11
8450.7080898185504
 21
4279.7266166992476
  0
LINE
  8
_0-1_
  6
CONTINUOUS
 62
    1
 10
8450.7080898185504
 20
4279.7266166992476
 11
8454.9227331632355
 21
4280.9164638939901
  0
LINE
  8
_0-1_
  6
CONTINUOUS
 62
    1
 10
8454.9227331632355
 20
4280.9164638939901
 11
8459.0541436240892
 21
4281.6831030967869
  0
LINE
  8
_0-1_
  6
CONTINUOUS
 62
    1
 10
8459.0541436240892
 20
4281.6831030967869
 11
8463.1214484776483
 21
4282.0405151150089
  0
LINE
  8
_0-1_
  6
CONTINUOUS
 62
    1
 10
7858.382745358912
 20
3782.0405151150089
 11
7856.9672194633586
 21
3782.09578861809
  0
LINE
  8
_0-1_
  6
CONTINUOUS
 62
    1
 10
7856.9672194633586
 20
3782.09578861809
 11
7855.6275021765514
 21
3782.261609127333
  0
LINE
  8
_0-1_
  6
CONTINUOUS
 62
    1
 10
7855.6275021765514
 20
3782.261609127333
 11
7854.3635934984904
 21
3782.5379766427395
  0
LINE
  8
_0-1_
  6
CONTINUOUS
 62
    1
 10
7854.3635934984904
 20
3782.5379766427395
 11
7853.1754934291757
 21
3782.9248911643072
  0
LINE
  8
_0-1_
  6
CONTINUOUS
 62
    1
 10
7853.1754934291757
 20
3782.9248911643072
 11
7852.0632019686063
 21
3783.4223526920368
  0
LINE
  8
_0-1_
  6
CONTINUOUS
 62
    1
 10
7852.0632019686063
 20
3783.4223526920368
 11
7851.0267191167841
 21
3784.0303612259299
  0
LINE
  8
_0-1_
  6
CONTINUOUS
 62
    1
 10
7851.0267191167841
 20
3784.0303612259299
 11
7850.0660448737062
 21
3784.7489167659846
  0
LINE
  8
_0-1_
  6
CONTINUOUS
 62
    1
 10
7850.0660448737062
 20
3784.7489167659846
 11
7849.1811792393764
 21
3785.5780193122014
  0
LINE
  8
_0-1_
  6
CONTINUOUS
 62
    1
 10
7849.1811792393764
 20
3785.5780193122014
 11
7848.3721222137929
 21
3786.5176688645802
  0
LINE
  8
_0-1_
  6
CONTINUOUS
 62
    1
 10
7848.3721222137929
 20
3786.5176688645802
 11
7847.6388737969546
 21
3787.5678654231224
  0
LINE
  8
_0-1_
  6
CONTINUOUS
 62
    1
 10
7847.6388737969546
 20
3787.5678654231224
 11
7846.9814339888626
 21
3788.7286089878257
  0
LINE
  8
_0-1_
  6
CONTINUOUS
 62
    1
 10
7846.9814339888626
 20
3788.7286089878257
 11
7846.3998027895159
 21
3789.9998995586911
  0
LINE
  8
_0-1_
  6
CONTINUOUS
 62
    1
 10
7846.3998027895159
 20
3789.9998995586911
 11
7845.8939801989163
 21
3791.38173713572
  0
LINE
  8
_0-1_
  6
CONTINUOUS
 62
    1
 10
7845.8939801989163
 20
3791.38173713572
 11
7845.4639662170639
 21
3792.8741217189108
  0
LINE
  8
_0-1_
  6
CONTINUOUS
 62
    1
 10
7845.4639662170639
 20
3792.8741217189108
 11
7845.109760843955
 21
3794.4770533082633
  0
LINE
  8
_0-1_
  6
CONTINUOUS
 62
    1
 10
7845.109760843955
 20
3794.4770533082633
 11
7844.8313640795941
 21
3796.1905319037783
  0
LINE
  8
_0-1_
  6
CONTINUOUS
 62
    1
 10
7844.8313640795941
 20
3796.1905319037783
 11
7844.6287759239794
 21
3798.0145575054557
  0
LINE
  8
_0-1_
  6
CONTINUOUS
 62
    1
 10
7844.6287759239794
 20
3798.0145575054557
 11
7844.575158459611
 21
3798.8327247921311
  0
LINE
  8
_0-1_
  6
CONTINUOUS
 62
    1
 10
7881.9716802233306
 20
4082.0405151150089
 11
7878.1371362253367
 21
4081.7430708683419
  0
LINE
  8
_0-1_
  6
CONTINUOUS
 62
    1
 10
7878.1371362253367
 20
4081.7430708683419
 11
7874.5064561816152
 21
4080.8507381283407
  0
LINE
  8
_0-1_
  6
CONTINUOUS
 62
    1
 10
7874.5064561816152
 20
4080.8507381283407
 11
7871.0796400921627
 21
4079.3635168950054
  0
LINE
  8
_0-1_
  6
CONTINUOUS
 62
    1
 10
7871.0796400921627
 20
4079.3635168950054
 11
7867.8566879569817
 21
4077.2814071683356
  0
LINE
  8
_0-1_
  6
CONTINUOUS
 62
    1
 10
7867.8566879569817
 20
4077.2814071683356
 11
7864.8375997760695
 21
4074.6044089483321
  0
LINE
  8
_0-1_
  6
CONTINUOUS
 62
    1
 10
7864.8375997760695
 20
4074.6044089483321
 11
7862.0223755494299
 21
4071.3325222349936
  0
LINE
  8
_0-1_
  6
CONTINUOUS
 62
    1
 10
7862.0223755494299
 20
4071.3325222349936
 11
7859.4110152770581
 21
4067.4657470283214
  0
LINE
  8
_0-1_
  6
CONTINUOUS
 62
    1
 10
7859.4110152770581
 20
4067.4657470283214
 11
7857.0035189589589
 21
4063.0040833283147
  0
LINE
  8
_0-1_
  6
CONTINUOUS
 62
    1
 10
7857.0035189589589
 20
4063.0040833283147
 11
7854.7998865951304
 21
4057.9475311349738
  0
LINE
  8
_0-1_
  6
CONTINUOUS
 62
    1
 10
7854.7998865951304
 20
4057.9475311349738
 11
7852.8001181855716
 21
4052.2960904482993
  0
LINE
  8
_0-1_
  6
CONTINUOUS
 62
    1
 10
7852.8001181855716
 20
4052.2960904482993
 11
7851.0042137302835
 21
4046.0497612682902
  0
LINE
  8
_0-1_
  6
CONTINUOUS
 62
    1
 10
7851.0042137302835
 20
4046.0497612682902
 11
7849.4121732292651
 21
4039.2085435949466
  0
LINE
  8
_0-1_
  6
CONTINUOUS
 62
    1
 10
7849.4121732292651
 20
4039.2085435949466
 11
7848.0239966825184
 21
4031.7724374282698
  0
LINE
  8
_0-1_
  6
CONTINUOUS
 62
    1
 10
7848.0239966825184
 20
4031.7724374282698
 11
7846.8396840900423
 21
4023.7414427682579
  0
LINE
  8
_0-1_
  6
CONTINUOUS
 62
    1
 10
7846.8396840900423
 20
4023.7414427682579
 11
7845.859235451836
 21
4015.1155596149124
  0
LINE
  8
_0-1_
  6
CONTINUOUS
 62
    1
 10
7845.859235451836
 20
4015.1155596149124
 11
7845.0826507678994
 21
4005.8947879682323
  0
LINE
  8
_0-1_
  6
CONTINUOUS
 62
    1
 10
7845.0826507678994
 20
4005.8947879682323
 11
7844.5099300382353
 21
3996.0791278282186
  0
LINE
  8
_0-1_
  6
CONTINUOUS
 62
    1
 10
8244.575158459611
 20
4082.0405151150089
 11
7881.9716802233306
 21
4082.0405151150089
  0
LINE
  8
_0-0_
  6
CENTER1
 62
    5
 10
5325.4277623757234
 20
6154.7661159871222
 11
5328.7262590645332
 21
6154.7661159871222
  0
LINE
  8
_0-1_
  6
CONTINUOUS
 62
    1
 10
5133.5262915799249
 20
5524.7583007506319
 11
5323.9357741093254
 21
5524.7583007506319
  0
LINE
  8
_0-0_
  6
CENTER1
 62
    5
 10
5322.4437858429292
 20
6154.7661159871222
 11
5319.1452891541194
 21
6154.7661159871222
  0
LINE
  8
_0-1_
  6
CONTINUOUS
 62
    1
 10
5017.5763200187139
 20
5524.7583007506319
 11
5035.1600537604309
 21
5524.7583007506319
  0
ARC
  8
_0-1_
  6
CONTINUOUS
 62
    1
 10
5017.5763200187139
 20
5534.7583007506319
 40
10
 50
181.33557216721505
 51
270
  0
LINE
  8
_0-1_
  6
CONTINUOUS
 62
    1
 10
5323.9357741093254
 20
5917.027317784673
 11
5314.8383576137994
 21
5916.9627823730016
  0
LINE
  8
_0-1_
  6
CONTINUOUS
 62
    1
 10
5314.8383576137994
 20
5916.9627823730016
 11
5305.6487781967462
 21
5916.8819458952848
  0
LINE
  8
_0-1_
  6
CONTINUOUS
 62
    1
 10
5305.6487781967462
 20
5916.8819458952848
 11
5296.4064419291772
 21
5916.7570837677595
  0
LINE
  8
_0-1_
  6
CONTINUOUS
 62
    1
 10
5296.4064419291772
 20
5916.7570837677595
 11
5287.1489756313267
 21
5916.5589602022401
  0
LINE
  8
_0-1_
  6
CONTINUOUS
 62
    1
 10
5287.1489756313267
 20
5916.5589602022401
 11
5277.9122268726414
 21
5916.2568282061175
  0
LINE
  8
_0-1_
  6
CONTINUOUS
 62
    1
 10
5277.9122268726414
 20
5916.2568282061175
 11
5268.7302639717846
 21
5915.8184295823594
  0
LINE
  8
_0-1_
  6
CONTINUOUS
 62
    1
 10
5268.7302639717846
 20
5915.8184295823594
 11
5259.6353759966414
 21
5915.2099949295107
  0
LINE
  8
_0-1_
  6
CONTINUOUS
 62
    1
 10
5259.6353759966414
 20
5915.2099949295107
 11
5250.6580727643131
 21
5914.3962436416905
  0
LINE
  8
_0-1_
  6
CONTINUOUS
 62
    1
 10
5250.6580727643131
 20
5914.3962436416905
 11
5241.8270848411203
 21
5913.3403839085968
  0
LINE
  8
_0-1_
  6
CONTINUOUS
 62
    1
 10
5241.8270848411203
 20
5913.3403839085968
 11
5233.1693635425981
 21
5912.0041127155009
  0
LINE
  8
_0-1_
  6
CONTINUOUS
 62
    1
 10
5233.1693635425981
 20
5912.0041127155009
 11
5224.7100809335006
 21
5910.3476158432559
  0
LINE
  8
_0-1_
  6
CONTINUOUS
 62
    1
 10
5224.7100809335006
 20
5910.3476158432559
 11
5216.4726298278001
 21
5908.3295678682862
  0
LINE
  8
_0-1_
  6
CONTINUOUS
 62
    1
 10
5216.4726298278001
 20
5908.3295678682862
 11
5208.4786237886856
 21
5905.9071321625961
  0
LINE
  8
_0-1_
  6
CONTINUOUS
 62
    1
 10
5208.4786237886856
 20
5905.9071321625961
 11
5200.7478971285682
 21
5903.0359608937633
  0
LINE
  8
_0-1_
  6
CONTINUOUS
 62
    1
 10
5200.7478971285682
 20
5903.0359608937633
 11
5193.2985049090685
 21
5899.6701950249444
  0
LINE
  8
_0-1_
  6
CONTINUOUS
 62
    1
 10
5193.2985049090685
 20
5899.6701950249444
 11
5186.1467229410309
 21
5895.7624643148729
  0
LINE
  8
_0-1_
  6
CONTINUOUS
 62
    1
 10
5186.1467229410309
 20
5895.7624643148729
 11
5179.3070477845167
 21
5891.2638873178566
  0
LINE
  8
_0-1_
  6
CONTINUOUS
 62
    1
 10
5179.3070477845167
 20
5891.2638873178566
 11
5172.7921967488046
 21
5886.1240713837815
  0
LINE
  8
_0-1_
  6
CONTINUOUS
 62
    1
 10
5172.7921967488046
 20
5886.1240713837815
 11
5166.61310789239
 21
5880.2911126581093
  0
LINE
  8
_0-1_
  6
CONTINUOUS
 62
    1
 10
5166.61310789239
 20
5880.2911126581093
 11
5160.7789400229858
 21
5873.7115960818792
  0
LINE
  8
_0-1_
  6
CONTINUOUS
 62
    1
 10
5160.7789400229858
 20
5873.7115960818792
 11
5155.2970726975236
 21
5866.3305953917043
  0
LINE
  8
_0-1_
  6
CONTINUOUS
 62
    1
 10
5155.2970726975236
 20
5866.3305953917043
 11
5150.1731062221534
 21
5858.0916731197785
  0
LINE
  8
_0-1_
  6
CONTINUOUS
 62
    1
 10
5150.1731062221534
 20
5858.0916731197785
 11
5145.4108616522408
 21
5848.9368805938684
  0
LINE
  8
_0-1_
  6
CONTINUOUS
 62
    1
 10
5145.4108616522408
 20
5848.9368805938684
 11
5141.0123807923719
 21
5838.8067579373183
  0
LINE
  8
_0-1_
  6
CONTINUOUS
 62
    1
 10
5141.0123807923719
 20
5838.8067579373183
 11
5136.9779261963477
 21
5827.6403340690495
  0
LINE
  8
_0-1_
  6
CONTINUOUS
 62
    1
 10
5136.9779261963477
 20
5827.6403340690495
 11
5133.3059811671874
 21
5815.3751267035595
  0
LINE
  8
_0-1_
  6
CONTINUOUS
 62
    1
 10
5133.3059811671874
 20
5815.3751267035595
 11
5129.9932497571308
 21
5801.9471423509221
  0
LINE
  8
_0-1_
  6
CONTINUOUS
 62
    1
 10
5129.9932497571308
 20
5801.9471423509221
 11
5127.0346567676306
 21
5787.2908763167889
  0
LINE
  8
_0-1_
  6
CONTINUOUS
 62
    1
 10
5127.0346567676306
 20
5787.2908763167889
 11
5124.4233477493626
 21
5771.3393127023846
  0
LINE
  8
_0-1_
  6
CONTINUOUS
 62
    1
 10
5124.4233477493626
 20
5771.3393127023846
 11
5122.1506890022147
 21
5754.0239244045142
  0
LINE
  8
_0-1_
  6
CONTINUOUS
 62
    1
 10
5122.1506890022147
 20
5754.0239244045142
 11
5120.2062675752977
 21
5735.2746731155567
  0
LINE
  8
_0-1_
  6
CONTINUOUS
 62
    1
 10
5120.2062675752977
 20
5735.2746731155567
 11
5118.5778912669366
 21
5715.0200093234698
  0
LINE
  8
_0-1_
  6
CONTINUOUS
 62
    1
 10
5118.5778912669366
 20
5715.0200093234698
 11
5117.2515886246747
 21
5693.1868723117868
  0
LINE
  8
_0-1_
  6
CONTINUOUS
 62
    1
 10
5117.2515886246747
 20
5693.1868723117868
 11
5116.2116089452738
 21
5669.7006901596151
  0
LINE
  8
_0-1_
  6
CONTINUOUS
 62
    1
 10
5116.2116089452738
 20
5669.7006901596151
 11
5115.4404222747144
 21
5644.4853797416417
  0
LINE
  8
_0-1_
  6
CONTINUOUS
 62
    1
 10
5115.4404222747144
 20
5644.4853797416417
 11
5114.9187194081915
 21
5617.4633467281301
  0
LINE
  8
_0-1_
  6
CONTINUOUS
 62
    1
 10
5114.9187194081915
 20
5617.4633467281301
 11
5114.6254118901215
 21
5588.5554855849177
  0
LINE
  8
_0-1_
  6
CONTINUOUS
 62
    1
 10
5114.6254118901215
 20
5588.5554855849177
 11
5114.5376320141349
 21
5557.6811795734211
  0
LINE
  8
_0-1_
  6
CONTINUOUS
 62
    1
 10
5114.5376320141349
 20
5557.6811795734211
 11
5114.6307328230832
 21
5524.7583007506319
  0
LINE
  8
_0-1_
  6
CONTINUOUS
 62
    1
 10
5052.3134953024119
 20
5524.7583007506319
 11
5035.1600537604309
 21
5524.7583007506319
  0
LINE
  8
_0-1_
  6
CONTINUOUS
 62
    1
 10
5052.3134953024119
 20
5524.7583007506319
 11
5133.5262915799249
 21
5524.7583007506319
  0
LINE
  8
_0-0_
  6
CENTER1
 62
    5
 10
5322.4437858429283
 20
6154.7661159871222
 11
5319.1452891541185
 21
6154.7661159871222
  0
LINE
  8
_0-1_
  6
CONTINUOUS
 62
    1
 10
5514.3452566387268
 20
5524.7583007506319
 11
5323.9357741093254
 21
5524.7583007506319
  0
LINE
  8
_0-0_
  6
CENTER1
 62
    5
 10
5325.4277623757225
 20
6154.7661159871222
 11
5328.7262590645323
 21
6154.7661159871222
  0
LINE
  8
_0-1_
  6
CONTINUOUS
 62
    1
 10
5630.2952281999378
 20
5524.7583007506319
 11
5612.7114944582208
 21
5524.7583007506319
  0
ARC
  8
_0-1_
  6
CONTINUOUS
 62
    1
 10
5630.2952281999378
 20
5534.7583007506319
 40
10
 50
270
 51
358.66442783278495
  0
LINE
  8
_0-1_
  6
CONTINUOUS
 62
    1
 10
5323.9357741093254
 20
5917.027317784673
 11
5333.0331906048523
 21
5916.9627823730016
  0
LINE
  8
_0-1_
  6
CONTINUOUS
 62
    1
 10
5333.0331906048523
 20
5916.9627823730016
 11
5342.2227700219055
 21
5916.8819458952848
  0
LINE
  8
_0-1_
  6
CONTINUOUS
 62
    1
 10
5342.2227700219055
 20
5916.8819458952848
 11
5351.4651062894745
 21
5916.7570837677595
  0
LINE
  8
_0-1_
  6
CONTINUOUS
 62
    1
 10
5351.4651062894745
 20
5916.7570837677595
 11
5360.722572587325
 21
5916.5589602022401
  0
LINE
  8
_0-1_
  6
CONTINUOUS
 62
    1
 10
5360.722572587325
 20
5916.5589602022401
 11
5369.9593213460103
 21
5916.2568282061175
  0
LINE
  8
_0-1_
  6
CONTINUOUS
 62
    1
 10
5369.9593213460103
 20
5916.2568282061175
 11
5379.1412842468671
 21
5915.8184295823594
  0
LINE
  8
_0-1_
  6
CONTINUOUS
 62
    1
 10
5379.1412842468671
 20
5915.8184295823594
 11
5388.2361722220103
 21
5915.2099949295107
  0
LINE
  8
_0-1_
  6
CONTINUOUS
 62
    1
 10
5388.2361722220103
 20
5915.2099949295107
 11
5397.2134754543385
 21
5914.3962436416905
  0
LINE
  8
_0-1_
  6
CONTINUOUS
 62
    1
 10
5397.2134754543385
 20
5914.3962436416905
 11
5406.0444633775314
 21
5913.3403839085968
  0
LINE
  8
_0-1_
  6
CONTINUOUS
 62
    1
 10
5406.0444633775314
 20
5913.3403839085968
 11
5414.7021846760535
 21
5912.0041127155009
  0
LINE
  8
_0-1_
  6
CONTINUOUS
 62
    1
 10
5414.7021846760535
 20
5912.0041127155009
 11
5423.161467285151
 21
5910.3476158432559
  0
LINE
  8
_0-1_
  6
CONTINUOUS
 62
    1
 10
5423.161467285151
 20
5910.3476158432559
 11
5431.3989183908516
 21
5908.3295678682862
  0
LINE
  8
_0-1_
  6
CONTINUOUS
 62
    1
 10
5431.3989183908516
 20
5908.3295678682862
 11
5439.3929244299652
 21
5905.9071321625961
  0
LINE
  8
_0-1_
  6
CONTINUOUS
 62
    1
 10
5439.3929244299652
 20
5905.9071321625961
 11
5447.1236510900835
 21
5903.0359608937633
  0
LINE
  8
_0-1_
  6
CONTINUOUS
 62
    1
 10
5447.1236510900835
 20
5903.0359608937633
 11
5454.5730433095832
 21
5899.6701950249444
  0
LINE
  8
_0-1_
  6
CONTINUOUS
 62
    1
 10
5454.5730433095832
 20
5899.6701950249444
 11
5461.7248252776208
 21
5895.7624643148729
  0
LINE
  8
_0-1_
  6
CONTINUOUS
 62
    1
 10
5461.7248252776208
 20
5895.7624643148729
 11
5468.564500434135
 21
5891.2638873178566
  0
LINE
  8
_0-1_
  6
CONTINUOUS
 62
    1
 10
5468.564500434135
 20
5891.2638873178566
 11
5475.0793514698471
 21
5886.1240713837815
  0
LINE
  8
_0-1_
  6
CONTINUOUS
 62
    1
 10
5475.0793514698471
 20
5886.1240713837815
 11
5481.2584403262608
 21
5880.2911126581093
  0
LINE
  8
_0-1_
  6
CONTINUOUS
 62
    1
 10
5481.2584403262608
 20
5880.2911126581093
 11
5487.0926081956659
 21
5873.7115960818792
  0
LINE
  8
_0-1_
  6
CONTINUOUS
 62
    1
 10
5487.0926081956659
 20
5873.7115960818792
 11
5492.5744755211281
 21
5866.3305953917043
  0
LINE
  8
_0-1_
  6
CONTINUOUS
 62
    1
 10
5492.5744755211281
 20
5866.3305953917043
 11
5497.6984419964983
 21
5858.0916731197785
  0
LINE
  8
_0-1_
  6
CONTINUOUS
 62
    1
 10
5497.6984419964983
 20
5858.0916731197785
 11
5502.46068656641
 21
5848.9368805938684
  0
LINE
  8
_0-1_
  6
CONTINUOUS
 62
    1
 10
5502.46068656641
 20
5848.9368805938684
 11
5506.8591674262798
 21
5838.8067579373183
  0
LINE
  8
_0-1_
  6
CONTINUOUS
 62
    1
 10
5506.8591674262798
 20
5838.8067579373183
 11
5510.893622022304
 21
5827.6403340690495
  0
LINE
  8
_0-1_
  6
CONTINUOUS
 62
    1
 10
5510.893622022304
 20
5827.6403340690495
 11
5514.5655670514643
 21
5815.3751267035595
  0
LINE
  8
_0-1_
  6
CONTINUOUS
 62
    1
 10
5514.5655670514643
 20
5815.3751267035595
 11
5517.8782984615209
 21
5801.9471423509221
  0
LINE
  8
_0-1_
  6
CONTINUOUS
 62
    1
 10
5517.8782984615209
 20
5801.9471423509221
 11
5520.8368914510211
 21
5787.2908763167889
  0
LINE
  8
_0-1_
  6
CONTINUOUS
 62
    1
 10
5520.8368914510211
 20
5787.2908763167889
 11
5523.4482004692891
 21
5771.3393127023846
  0
LINE
  8
_0-1_
  6
CONTINUOUS
 62
    1
 10
5523.4482004692891
 20
5771.3393127023846
 11
5525.720859216437
 21
5754.0239244045142
  0
LINE
  8
_0-1_
  6
CONTINUOUS
 62
    1
 10
5525.720859216437
 20
5754.0239244045142
 11
5527.665280643354
 21
5735.2746731155567
  0
LINE
  8
_0-1_
  6
CONTINUOUS
 62
    1
 10
5527.665280643354
 20
5735.2746731155567
 11
5529.2936569517151
 21
5715.0200093234698
  0
LINE
  8
_0-1_
  6
CONTINUOUS
 62
    1
 10
5529.2936569517151
 20
5715.0200093234698
 11
5530.619959593977
 21
5693.1868723117868
  0
LINE
  8
_0-1_
  6
CONTINUOUS
 62
    1
 10
5530.619959593977
 20
5693.1868723117868
 11
5531.6599392733779
 21
5669.7006901596151
  0
LINE
  8
_0-1_
  6
CONTINUOUS
 62
    1
 10
5531.6599392733779
 20
5669.7006901596151
 11
5532.4311259439373
 21
5644.4853797416417
  0
LINE
  8
_0-1_
  6
CONTINUOUS
 62
    1
 10
5532.4311259439373
 20
5644.4853797416417
 11
5532.9528288104593
 21
5617.4633467281301
  0
LINE
  8
_0-1_
  6
CONTINUOUS
 62
    1
 10
5532.9528288104593
 20
5617.4633467281301
 11
5533.2461363285302
 21
5588.5554855849177
  0
LINE
  8
_0-1_
  6
CONTINUOUS
 62
    1
 10
5533.2461363285302
 20
5588.5554855849177
 11
5533.3339162045168
 21
5557.6811795734211
  0
LINE
  8
_0-1_
  6
CONTINUOUS
 62
    1
 10
5533.3339162045168
 20
5557.6811795734211
 11
5533.2408153955685
 21
5524.7583007506319
  0
LINE
  8
_0-1_
  6
CONTINUOUS
 62
    1
 10
5595.5580529162398
 20
5524.7583007506319
 11
5612.7114944582208
 21
5524.7583007506319
  0
LINE
  8
_0-1_
  6
CONTINUOUS
 62
    1
 10
5595.5580529162398
 20
5524.7583007506319
 11
5514.3452566387268
 21
5524.7583007506319
  0
LINE
  8
_0-1_
  6
CONTINUOUS
 62
    1
 10
5421.4357741093263
 20
5199.7583007506319
 11
5323.9357741093254
 21
5199.7583007506319
  0
LINE
  8
_0-1_
  6
CONTINUOUS
 62
    1
 10
5421.4357741093263
 20
5174.7583007506319
 11
5323.9357741093254
 21
5174.7583007506319
  0
ARC
  8
_0-1_
  6
CONTINUOUS
 62
    1
 10
5421.4357741093263
 20
5239.758300750631
 40
65
 50
270
 51
0
  0
ARC
  8
_0-1_
  6
CONTINUOUS
 62
    1
 10
5476.4357741093254
 20
3523.4864082804834
 40
10
 50
0
 51
90
  0
LINE
  8
_0-1_
  6
CONTINUOUS
 62
    1
 10
5486.4357741093254
 20
3518.4864082804834
 11
5486.4357741093254
 21
3523.4864082804834
  0
ARC
  8
_0-1_
  6
CONTINUOUS
 62
    1
 10
5476.4357741093254
 20
3518.4864082804834
 40
10
 50
270
 51
0
  0
LINE
  8
_0-1_
  6
CONTINUOUS
 62
    1
 10
5486.4357741093254
 20
3788.4864082804834
 11
5486.4357741093254
 21
3521.5758158556037
  0
LINE
  8
_0-1_
  6
CONTINUOUS
 62
    1
 10
5461.4357741093254
 20
3788.4864082804834
 11
5461.4357741093254
 21
3533.4864082804829
  0
LINE
  8
_0-1_
  6
CONTINUOUS
 62
    1
 10
5476.4357741093254
 20
3533.4864082804829
 11
5323.9357741093254
 21
3533.4864082804829
  0
LINE
  8
_0-1_
  6
CONTINUOUS
 62
    1
 10
5476.4357741093254
 20
3508.4864082804829
 11
5323.9357741093254
 21
3508.4864082804829
  0
LINE
  8
_0-1_
  6
CONTINUOUS
 62
    1
 10
5451.4357741093254
 20
5279.758300750631
 11
5323.9357741093254
 21
5279.758300750631
  0
ARC
  8
_0-1_
  6
CONTINUOUS
 62
    1
 10
5451.4357741093254
 20
5289.758300750631
 40
10
 50
270
 51
0
  0
LINE
  8
_0-1_
  6
CONTINUOUS
 62
    1
 10
5451.0161730248246
 20
5254.758300750631
 11
5323.9357741093254
 21
5254.758300750631
  0
ARC
  8
_0-1_
  6
CONTINUOUS
 62
    1
 10
5421.4357741093263
 20
5239.758300750631
 40
40
 50
270
 51
9.5940682268605055
  0
ARC
  8
_0-1_
  6
CONTINUOUS
 62
    1
 10
5451.0161730248246
 20
5244.7583007506319
 40
10
 50
9.594068226860422
 51
90
  0
LINE
  8
_0-1_
  6
CONTINUOUS
 62
    1
 10
5486.4357741093254
 20
5239.758300750631
 11
5486.4357741093254
 21
5524.7583007506319
  0
LINE
  8
_0-1_
  6
CONTINUOUS
 62
    1
 10
5461.4357741093254
 20
5289.758300750631
 11
5461.4357741093254
 21
5524.7583007506319
  0
LINE
  8
_0-0_
  6
CENTER1
 62
    5
 10
5486.4357741093254
 20
5374.7583007506319
 11
5461.4357741093254
 21
5374.7583007506319
  0
ARC
  8
_0-1_
  6
CONTINUOUS
 62
    1
 10
7689.0832247656417
 20
3543.4864082804834
 40
10
 50
270
 51
327.55059743523861
  0
ARC
  8
_0-1_
  6
CONTINUOUS
 62
    1
 10
7689.0832247656417
 20
3543.4864082804834
 40
35
 50
270
 51
327.55059743523844
  0
LINE
  8
_0-1_
  6
CONTINUOUS
 62
    1
 10
7504.5751584596101
 20
3508.4864082804829
 11
7689.0832247656417
 21
3508.4864082804829
  0
LINE
  8
_0-1_
  6
CONTINUOUS
 62
    1
 10
7494.575158459611
 20
3518.4864082804834
 11
7494.575158459611
 21
3523.4864082804834
  0
ARC
  8
_0-1_
  6
CONTINUOUS
 62
    1
 10
7504.5751584596101
 20
3518.4864082804834
 40
10
 50
180
 51
270
  0
LINE
  8
_0-1_
  6
CONTINUOUS
 62
    1
 10
7689.0832247656417
 20
3533.4864082804829
 11
7504.5751584596101
 21
3533.4864082804829
  0
ARC
  8
_0-1_
  6
CONTINUOUS
 62
    1
 10
5171.4357741093263
 20
3523.4864082804834
 40
10
 50
90
 51
180
  0
LINE
  8
_0-1_
  6
CONTINUOUS
 62
    1
 10
5161.4357741093254
 20
3518.4864082804834
 11
5161.4357741093254
 21
3523.4864082804834
  0
ARC
  8
_0-1_
  6
CONTINUOUS
 62
    1
 10
5171.4357741093263
 20
3518.4864082804834
 40
10
 50
180
 51
270
  0
LINE
  8
_0-1_
  6
CONTINUOUS
 62
    1
 10
5161.4357741093254
 20
3788.4864082804834
 11
5161.4357741093254
 21
3521.5758158556037
  0
LINE
  8
_0-1_
  6
CONTINUOUS
 62
    1
 10
5186.4357741093254
 20
3788.4864082804834
 11
5186.4357741093254
 21
3533.4864082804829
  0
LINE
  8
_0-1_
  6
CONTINUOUS
 62
    1
 10
5171.4357741093263
 20
3533.4864082804829
 11
5323.9357741093254
 21
3533.4864082804829
  0
LINE
  8
_0-1_
  6
CONTINUOUS
 62
    1
 10
5171.4357741093263
 20
3508.4864082804829
 11
5323.9357741093254
 21
3508.4864082804829
  0
LINE
  8
_0-1_
  6
CONTINUOUS
 62
    1
 10
7838.677206204522
 20
3463.3793493543735
 11
7836.8307507116924
 21
3462.2822029339131
  0
LINE
  8
_0-1_
  6
CONTINUOUS
 62
    1
 10
7836.8307507116924
 20
3462.2822029339131
 11
7833.6805901935804
 21
3460.3617508982652
  0
LINE
  8
_0-1_
  6
CONTINUOUS
 62
    1
 10
7833.6805901935804
 20
3460.3617508982652
 11
7830.6231614394619
 21
3458.3612425397419
  0
LINE
  8
_0-1_
  6
CONTINUOUS
 62
    1
 10
7830.6231614394619
 20
3458.3612425397419
 11
7827.7171554392335
 21
3456.2300092995629
  0
LINE
  8
_0-1_
  6
CONTINUOUS
 62
    1
 10
7827.7171554392335
 20
3456.2300092995629
 11
7825.021263182748
 21
3453.9173826189453
  0
LINE
  8
_0-1_
  6
CONTINUOUS
 62
    1
 10
7825.021263182748
 20
3453.9173826189453
 11
7822.5941756599132
 21
3451.372693939109
  0
LINE
  8
_0-1_
  6
CONTINUOUS
 62
    1
 10
7822.5941756599132
 20
3451.372693939109
 11
7821.3327585275465
 21
3449.7704776498367
  0
LINE
  8
_0-1_
  6
CONTINUOUS
 62
    1
 10
7821.3327585275465
 20
3449.7704776498367
 11
7820.8585768396806
 21
3449.0973027817959
  0
LINE
  8
_0-1_
  6
CONTINUOUS
 62
    1
 10
7820.8585768396806
 20
3449.0973027817959
 11
7820.0818344579829
 21
3447.9014228038054
  0
LINE
  8
_0-1_
  6
CONTINUOUS
 62
    1
 10
7820.0818344579829
 20
3447.9014228038054
 11
7819.3485861466233
 21
3446.6679939300761
  0
LINE
  8
_0-1_
  6
CONTINUOUS
 62
    1
 10
7819.3485861466233
 20
3446.6679939300761
 11
7818.6493353836904
 21
3445.4052146094596
  0
LINE
  8
_0-1_
  6
CONTINUOUS
 62
    1
 10
7818.6493353836904
 20
3445.4052146094596
 11
7817.9745856472891
 21
3444.1212832908072
  0
LINE
  8
_0-1_
  6
CONTINUOUS
 62
    1
 10
7817.9745856472891
 20
3444.1212832908072
 11
7817.3148404154972
 21
3442.8243984229694
  0
LINE
  8
_0-1_
  6
CONTINUOUS
 62
    1
 10
7817.3148404154972
 20
3442.8243984229694
 11
7816.9353211216167
 21
3442.0695004985541
  0
LINE
  8
_0-1_
  6
CONTINUOUS
 62
    1
 10
7838.677206204522
 20
3463.3793493543735
 11
7845.9795583775986
 21
3464.8591401490535
  0
LINE
  8
_0-1_
  6
CONTINUOUS
 62
    1
 10
7845.9795583775986
 20
3464.8591401490535
 11
7858.5741859324462
 21
3467.372388981898
  0
LINE
  8
_0-1_
  6
CONTINUOUS
 62
    1
 10
7858.5741859324462
 20
3467.372388981898
 11
7871.1809390081271
 21
3469.7797639084656
  0
LINE
  8
_0-1_
  6
CONTINUOUS
 62
    1
 10
7871.1809390081271
 20
3469.7797639084656
 11
7883.8074919848968
 21
3472.0142561273151
  0
LINE
  8
_0-1_
  6
CONTINUOUS
 62
    1
 10
7883.8074919848968
 20
3472.0142561273151
 11
7896.4615192430192
 21
3474.008856837007
  0
LINE
  8
_0-1_
  6
CONTINUOUS
 62
    1
 10
7896.4615192430192
 20
3474.008856837007
 11
7909.1506951627816
 21
3475.6965572360996
  0
LINE
  8
_0-1_
  6
CONTINUOUS
 62
    1
 10
7909.1506951627816
 20
3475.6965572360996
 11
7916.5295464178826
 21
3476.5083967930309
  0
LINE
  8
_0-1_
  6
CONTINUOUS
 62
    1
 10
7916.5295464178826
 20
3476.5083967930309
 11
7920.9116862908104
 21
3476.9262189677079
  0
LINE
  8
_0-1_
  6
CONTINUOUS
 62
    1
 10
7920.9116862908104
 20
3476.9262189677079
 11
7928.478693544901
 21
3477.5453718852477
  0
LINE
  8
_0-1_
  6
CONTINUOUS
 62
    1
 10
7928.478693544901
 20
3477.5453718852477
 11
7936.0580563124695
 21
3478.0566427170897
  0
LINE
  8
_0-1_
  6
CONTINUOUS
 62
    1
 10
7936.0580563124695
 20
3478.0566427170897
 11
7943.647076883155
 21
3478.4835865037794
  0
LINE
  8
_0-1_
  6
CONTINUOUS
 62
    1
 10
7943.647076883155
 20
3478.4835865037794
 11
7951.2430575465969
 21
3478.8497582858608
  0
LINE
  8
_0-1_
  6
CONTINUOUS
 62
    1
 10
7951.2430575465969
 20
3478.8497582858608
 11
7958.8433005924144
 21
3479.1787131038823
  0
LINE
  8
_0-1_
  6
CONTINUOUS
 62
    1
 10
7958.8433005924144
 20
3479.1787131038823
 11
7963.2523315444278
 21
3479.3617359962382
  0
LINE
  8
_0-1_
  6
CONTINUOUS
 62
    1
 10
7958.8433005924144
 20
3479.1787131038823
 11
7962.964597657302
 21
3480.6438234055131
  0
LINE
  8
_0-1_
  6
CONTINUOUS
 62
    1
 10
7962.964597657302
 20
3480.6438234055131
 11
7970.0785759756654
 21
3483.1282636017959
  0
LINE
  8
_0-1_
  6
CONTINUOUS
 62
    1
 10
7970.0785759756654
 20
3483.1282636017959
 11
7977.2155924154813
 21
3485.4971147761148
  0
LINE
  8
_0-1_
  6
CONTINUOUS
 62
    1
 10
7977.2155924154813
 20
3485.4971147761148
 11
7984.3902280662887
 21
3487.6772193196316
  0
LINE
  8
_0-1_
  6
CONTINUOUS
 62
    1
 10
7984.3902280662887
 20
3487.6772193196316
 11
7991.6170640176088
 21
3489.5954196235066
  0
LINE
  8
_0-1_
  6
CONTINUOUS
 62
    1
 10
7991.6170640176088
 20
3489.5954196235066
 11
7998.9106813589697
 21
3491.1785580789037
  0
LINE
  8
_0-1_
  6
CONTINUOUS
 62
    1
 10
7998.9106813589697
 20
3491.1785580789037
 11
8003.1773243573725
 21
3491.9144251419821
  0
LINE
  8
_0-1_
  6
CONTINUOUS
 62
    1
 10
8003.1773243573725
 20
3491.9144251419821
 11
8004.5314204560018
 21
3492.1163911011163
  0
LINE
  8
_0-1_
  6
CONTINUOUS
 62
    1
 10
8004.5314204560018
 20
3492.1163911011163
 11
8006.8723239537267
 21
3492.4332248399273
  0
LINE
  8
_0-1_
  6
CONTINUOUS
 62
    1
 10
8006.8723239537267
 20
3492.4332248399273
 11
8009.2198935295555
 21
3492.7166129069533
  0
LINE
  8
_0-1_
  6
CONTINUOUS
 62
    1
 10
8009.2198935295555
 20
3492.7166129069533
 11
8011.5726737079258
 21
3492.9738578506181
  0
LINE
  8
_0-1_
  6
CONTINUOUS
 62
    1
 10
8011.5726737079258
 20
3492.9738578506181
 11
8013.9292090132612
 21
3493.2122622193483
  0
LINE
  8
_0-1_
  6
CONTINUOUS
 62
    1
 10
8013.9292090132612
 20
3493.2122622193483
 11
8016.2880439699993
 21
3493.4391285615666
  0
LINE
  8
_0-1_
  6
CONTINUOUS
 62
    1
 10
8016.2880439699993
 20
3493.4391285615666
 11
8017.6566484121195
 21
3493.5683019001181
  0
LINE
  8
_0-1_
  6
CONTINUOUS
 62
    1
 10
8017.6566484121195
 20
3493.5683019001176
 11
8010.1473416653416
 21
3711.9942526721957
  0
LINE
  8
_0-1_
  6
CONTINUOUS
 62
    1
 10
8010.1473416653416
 20
3717.9766393141335
 11
8010.1473416653416
 21
3711.9942526722689
  0
LINE
  8
_0-1_
  6
CONTINUOUS
 62
    1
 10
8020.1473416653444
 20
3727.9766393141331
 11
8096.9355438785242
 21
3727.9766393141331
  0
ARC
  8
_0-1_
  6
CONTINUOUS
 62
    1
 10
8020.1473416653444
 20
3717.9766393141335
 40
10
 50
90
 51
180
  0
LINE
  8
_0-1_
  6
CONTINUOUS
 62
    1
 10
8010.1473416653416
 20
3711.9942526722689
 11
8096.9355438785242
 21
3711.9942526722689
  0
LINE
  8
_0-1_
  6
CONTINUOUS
 62
    1
 10
7817.3148404154972
 20
3442.0695004985541
 11
8096.9355438785242
 21
3442.0695004985541
  0
LINE
  8
_0-1_
  6
CONTINUOUS
 62
    1
 10
7838.677206204522
 20
3463.3793493543735
 11
8096.9355438785242
 21
3463.3793493543735
  0
LINE
  8
_0-1_
  6
CONTINUOUS
 62
    1
 10
7963.2523315444278
 20
3479.3617359962382
 11
8096.9355438785242
 21
3479.3617359962382
  0
LINE
  8
_0-1_
  6
CONTINUOUS
 62
    1
 10
8017.6566484121195
 20
3493.5683019001181
 11
8096.9355438785242
 21
3493.5683019001181
  0
LINE
  8
_0-1_
  6
CONTINUOUS
 62
    1
 10
8355.1938815525227
 20
3463.3793493543735
 11
8357.0403370453532
 21
3462.282202933914
  0
LINE
  8
_0-1_
  6
CONTINUOUS
 62
    1
 10
8357.0403370453532
 20
3462.282202933914
 11
8360.1904975634716
 21
3460.3617508982652
  0
LINE
  8
_0-1_
  6
CONTINUOUS
 62
    1
 10
8360.1904975634716
 20
3460.3617508982652
 11
8363.2479263175846
 21
3458.3612425397419
  0
LINE
  8
_0-1_
  6
CONTINUOUS
 62
    1
 10
8363.2479263175846
 20
3458.3612425397419
 11
8366.1539323178167
 21
3456.2300092995629
  0
LINE
  8
_0-1_
  6
CONTINUOUS
 62
    1
 10
8366.1539323178167
 20
3456.2300092995629
 11
8368.8498245742976
 21
3453.9173826189453
  0
LINE
  8
_0-1_
  6
CONTINUOUS
 62
    1
 10
8368.8498245742976
 20
3453.9173826189453
 11
8371.2769120971388
 21
3451.372693939109
  0
LINE
  8
_0-1_
  6
CONTINUOUS
 62
    1
 10
8371.2769120971388
 20
3451.372693939109
 11
8372.5383292294991
 21
3449.7704776498367
  0
LINE
  8
_0-1_
  6
CONTINUOUS
 62
    1
 10
8372.5383292294991
 20
3449.7704776498367
 11
8373.0125109173659
 21
3449.0973027817959
  0
LINE
  8
_0-1_
  6
CONTINUOUS
 62
    1
 10
8373.0125109173659
 20
3449.0973027817959
 11
8373.7892532990682
 21
3447.9014228038054
  0
LINE
  8
_0-1_
  6
CONTINUOUS
 62
    1
 10
8373.7892532990682
 20
3447.9014228038054
 11
8374.5225016104287
 21
3446.6679939300761
  0
LINE
  8
_0-1_
  6
CONTINUOUS
 62
    1
 10
8374.5225016104287
 20
3446.6679939300761
 11
8375.2217523733543
 21
3445.4052146094596
  0
LINE
  8
_0-1_
  6
CONTINUOUS
 62
    1
 10
8375.2217523733543
 20
3445.4052146094596
 11
8375.8965021097629
 21
3444.1212832908072
  0
LINE
  8
_0-1_
  6
CONTINUOUS
 62
    1
 10
8375.8965021097629
 20
3444.1212832908072
 11
8376.5562473415539
 21
3442.8243984229694
  0
LINE
  8
_0-1_
  6
CONTINUOUS
 62
    1
 10
8376.5562473415539
 20
3442.8243984229694
 11
8376.9357666354299
 21
3442.0695004985541
  0
LINE
  8
_0-1_
  6
CONTINUOUS
 62
    1
 10
8355.1938815525227
 20
3463.3793493543735
 11
8347.8915293794525
 21
3464.8591401490535
  0
LINE
  8
_0-1_
  6
CONTINUOUS
 62
    1
 10
8347.8915293794525
 20
3464.8591401490535
 11
8335.2969018246004
 21
3467.372388981898
  0
LINE
  8
_0-1_
  6
CONTINUOUS
 62
    1
 10
8335.2969018246004
 20
3467.372388981898
 11
8322.6901487489249
 21
3469.7797639084656
  0
LINE
  8
_0-1_
  6
CONTINUOUS
 62
    1
 10
8322.6901487489249
 20
3469.7797639084656
 11
8310.0635957721552
 21
3472.0142561273151
  0
LINE
  8
_0-1_
  6
CONTINUOUS
 62
    1
 10
8310.0635957721552
 20
3472.0142561273151
 11
8297.4095685140273
 21
3474.008856837007
  0
LINE
  8
_0-1_
  6
CONTINUOUS
 62
    1
 10
8297.4095685140273
 20
3474.008856837007
 11
8284.7203925942686
 21
3475.6965572360996
  0
LINE
  8
_0-1_
  6
CONTINUOUS
 62
    1
 10
8284.7203925942686
 20
3475.6965572360996
 11
8277.3415413391631
 21
3476.5083967930309
  0
LINE
  8
_0-1_
  6
CONTINUOUS
 62
    1
 10
8277.3415413391631
 20
3476.5083967930309
 11
8272.9594014662362
 21
3476.9262189677079
  0
LINE
  8
_0-1_
  6
CONTINUOUS
 62
    1
 10
8272.9594014662362
 20
3476.9262189677079
 11
8265.392394212151
 21
3477.5453718852477
  0
LINE
  8
_0-1_
  6
CONTINUOUS
 62
    1
 10
8265.392394212151
 20
3477.5453718852477
 11
8257.8130314445752
 21
3478.0566427170897
  0
LINE
  8
_0-1_
  6
CONTINUOUS
 62
    1
 10
8257.8130314445752
 20
3478.0566427170897
 11
8250.2240108738897
 21
3478.4835865037794
  0
LINE
  8
_0-1_
  6
CONTINUOUS
 62
    1
 10
8250.2240108738897
 20
3478.4835865037794
 11
8242.6280302104515
 21
3478.8497582858618
  0
LINE
  8
_0-1_
  6
CONTINUOUS
 62
    1
 10
8242.6280302104515
 20
3478.8497582858618
 11
8235.027787164634
 21
3479.1787131038823
  0
LINE
  8
_0-1_
  6
CONTINUOUS
 62
    1
 10
8235.027787164634
 20
3479.1787131038823
 11
8230.6187562126215
 21
3479.3617359962382
  0
LINE
  8
_0-1_
  6
CONTINUOUS
 62
    1
 10
8235.027787164634
 20
3479.1787131038823
 11
8230.9064900997473
 21
3480.6438234055131
  0
LINE
  8
_0-1_
  6
CONTINUOUS
 62
    1
 10
8230.9064900997473
 20
3480.6438234055131
 11
8223.7925117813829
 21
3483.1282636017959
  0
LINE
  8
_0-1_
  6
CONTINUOUS
 62
    1
 10
8223.7925117813829
 20
3483.1282636017959
 11
8216.6554953415671
 21
3485.4971147761148
  0
LINE
  8
_0-1_
  6
CONTINUOUS
 62
    1
 10
8216.6554953415671
 20
3485.4971147761148
 11
8209.4808596907606
 21
3487.6772193196316
  0
LINE
  8
_0-1_
  6
CONTINUOUS
 62
    1
 10
8209.4808596907606
 20
3487.6772193196316
 11
8202.2540237394387
 21
3489.5954196235066
  0
LINE
  8
_0-1_
  6
CONTINUOUS
 62
    1
 10
8202.2540237394387
 20
3489.5954196235066
 11
8194.9604063980787
 21
3491.1785580789037
  0
LINE
  8
_0-1_
  6
CONTINUOUS
 62
    1
 10
8194.9604063980787
 20
3491.1785580789037
 11
8190.6937633996758
 21
3491.9144251419821
  0
LINE
  8
_0-1_
  6
CONTINUOUS
 62
    1
 10
8190.6937633996758
 20
3491.9144251419821
 11
8189.3396673010475
 21
3492.1163911011163
  0
LINE
  8
_0-1_
  6
CONTINUOUS
 62
    1
 10
8189.3396673010475
 20
3492.1163911011163
 11
8186.9987638033226
 21
3492.4332248399273
  0
LINE
  8
_0-1_
  6
CONTINUOUS
 62
    1
 10
8186.9987638033226
 20
3492.4332248399273
 11
8184.6511942274929
 21
3492.7166129069533
  0
LINE
  8
_0-1_
  6
CONTINUOUS
 62
    1
 10
8184.6511942274929
 20
3492.7166129069533
 11
8182.2984140491226
 21
3492.9738578506181
  0
LINE
  8
_0-1_
  6
CONTINUOUS
 62
    1
 10
8182.2984140491226
 20
3492.9738578506181
 11
8179.9418787437871
 21
3493.2122622193483
  0
LINE
  8
_0-1_
  6
CONTINUOUS
 62
    1
 10
8179.9418787437871
 20
3493.2122622193483
 11
8177.58304378705
 21
3493.4391285615666
  0
LINE
  8
_0-1_
  6
CONTINUOUS
 62
    1
 10
8177.58304378705
 20
3493.4391285615666
 11
8176.2144393449289
 21
3493.5683019001181
  0
LINE
  8
_0-1_
  6
CONTINUOUS
 62
    1
 10
8176.2144393449289
 20
3493.5683019001181
 11
8183.7237460917067
 21
3711.9942526721957
  0
LINE
  8
_0-1_
  6
CONTINUOUS
 62
    1
 10
8183.7237460917067
 20
3717.9766393141335
 11
8183.7237460917067
 21
3711.9942526722689
  0
LINE
  8
_0-1_
  6
CONTINUOUS
 62
    1
 10
8173.723746091704
 20
3727.9766393141331
 11
8096.9355438785242
 21
3727.9766393141331
  0
ARC
  8
_0-1_
  6
CONTINUOUS
 62
    1
 10
8173.723746091704
 20
3717.9766393141335
 40
10
 50
0
 51
90
  0
LINE
  8
_0-1_
  6
CONTINUOUS
 62
    1
 10
8183.7237460917067
 20
3711.9942526722689
 11
8096.9355438785242
 21
3711.9942526722689
  0
LINE
  8
_0-1_
  6
CONTINUOUS
 62
    1
 10
8376.5562473415539
 20
3442.0695004985541
 11
8096.9355438785242
 21
3442.0695004985541
  0
LINE
  8
_0-1_
  6
CONTINUOUS
 62
    1
 10
8355.1938815525227
 20
3463.3793493543735
 11
8096.9355438785242
 21
3463.3793493543735
  0
LINE
  8
_0-1_
  6
CONTINUOUS
 62
    1
 10
8230.6187562126215
 20
3479.3617359962382
 11
8096.9355438785242
 21
3479.3617359962382
  0
LINE
  8
_0-1_
  6
CONTINUOUS
 62
    1
 10
8176.2144393449289
 20
3493.5683019001181
 11
8096.9355438785242
 21
3493.5683019001181
  0
CIRCLE
  8
_0-1_
  6
CONTINUOUS
 62
    1
 10
8080.9355438785242
 20
3685.4082247652245
 40
16
  0
LINE
  8
_0-1_
  6
CONTINUOUS
 62
    1
 10
8370.8834544393721
 20
3660.4775001541666
 11
8370.8834544393721
 21
3660.4775001541666
  0
LINE
  8
_0-1_
  6
CONTINUOUS
 62
    1
 10
8370.8834544393721
 20
3660.4775001541666
 11
8371.7536949766636
 21
3660.4256764904335
  0
LINE
  8
_0-1_
  6
CONTINUOUS
 62
    1
 10
8371.7536949766636
 20
3660.4256764904335
 11
8372.6197038595692
 21
3660.5257147751531
  0
LINE
  8
_0-1_
  6
CONTINUOUS
 62
    1
 10
8372.6197038595692
 20
3660.5257147751531
 11
8373.4551678464013
 21
3660.7745753956665
  0
LINE
  8
_0-1_
  6
CONTINUOUS
 62
    1
 10
8373.4551678464013
 20
3660.7745753956665
 11
8374.234701786685
 21
3661.1646968479481
  0
LINE
  8
_0-1_
  6
CONTINUOUS
 62
    1
 10
8374.234701786685
 20
3661.1646968479481
 11
8374.9346199361098
 21
3661.6842254890821
  0
LINE
  8
_0-1_
  6
CONTINUOUS
 62
    1
 10
8374.9346199361098
 20
3661.6842254890821
 11
8375.5336556358779
 21
3662.3173757042014
  0
LINE
  8
_0-1_
  6
CONTINUOUS
 62
    1
 10
8375.5336556358779
 20
3662.3173757042014
 11
8376.0136074893835
 21
3663.0449095444087
  0
LINE
  8
_0-1_
  6
CONTINUOUS
 62
    1
 10
8376.0136074893835
 20
3663.0449095444087
 11
8376.3598924024209
 21
3663.8447212621199
  0
LINE
  8
_0-1_
  6
CONTINUOUS
 62
    1
 10
8376.3598924024209
 20
3663.8447212621199
 11
8376.5619886831373
 21
3664.6925089830165
  0
LINE
  8
_0-1_
  6
CONTINUOUS
 62
    1
 10
8376.5619886831373
 20
3664.6925089830165
 11
8376.6137557383099
 21
3665.5625131061997
  0
LINE
  8
_0-1_
  6
CONTINUOUS
 62
    1
 10
8376.6137557383099
 20
3665.5625131061997
 11
8376.5136206521602
 21
3666.4282989966309
  0
LINE
  8
_0-1_
  6
CONTINUOUS
 62
    1
 10
8376.5136206521602
 20
3666.4282989966309
 11
8376.2646259786125
 21
3667.2635601881375
  0
LINE
  8
_0-1_
  6
CONTINUOUS
 62
    1
 10
8376.2646259786125
 20
3667.2635601881375
 11
8375.8743372948247
 21
3668.0429176920779
  0
LINE
  8
_0-1_
  6
CONTINUOUS
 62
    1
 10
8375.8743372948247
 20
3668.0429176920779
 11
8375.3546133249583
 21
3668.7426911250695
  0
LINE
  8
_0-1_
  6
CONTINUOUS
 62
    1
 10
8375.3546133249583
 20
3668.7426911250695
 11
8374.7212456188427
 21
3669.3416182254527
  0
LINE
  8
_0-1_
  6
CONTINUOUS
 62
    1
 10
8374.7212456188427
 20
3669.3416182254527
 11
8373.9934787337315
 21
3669.8215008963543
  0
LINE
  8
_0-1_
  6
CONTINUOUS
 62
    1
 10
8373.9934787337315
 20
3669.8215008963543
 11
8373.1934254981588
 21
3670.1677581456515
  0
LINE
  8
_0-1_
  6
CONTINUOUS
 62
    1
 10
8373.1934254981588
 20
3670.1677581456515
 11
8372.3479489331075
 21
3670.3694910341587
  0
LINE
  8
_0-1_
  6
CONTINUOUS
 62
    1
 10
8117.0749166547321
 20
3697.8687384765776
 11
8370.883454707453
 21
3660.4775019738818
  0
ARC
  8
_0-1_
  6
CONTINUOUS
 62
    1
 10
8115.6174414117713
 20
3687.9755202986457
 40
10
 50
81.619430946240556
 51
121.50272113504866
  0
LINE
  8
_0-1_
  6
CONTINUOUS
 62
    1
 10
8114.9429616561602
 20
3708.2907538183108
 11
8372.3479770614395
 21
3670.3696819669003
  0
ARC
  8
_0-1_
  6
CONTINUOUS
 62
    1
 10
8113.4854864131994
 20
3698.3975356403798
 40
10
 50
81.619430946240612
 51
121.50272113504863
  0
LINE
  8
_0-1_
  6
CONTINUOUS
 62
    1
 10
8108.2600958295334
 20
3706.923689125284
 11
8092.004701522811
 21
3696.9613087277821
  0
LINE
  8
_0-1_
  6
CONTINUOUS
 62
    1
 10
8110.3920508281053
 20
3696.5016737835499
 11
8096.705188871837
 21
3688.1134598353924
  0
LINE
  8
_0-1_
  6
CONTINUOUS
 62
    1
 10
8080.1884161795242
 20
3727.9766393141331
 11
8080.1884161795242
 21
3782.0405151150089
  0
LINE
  8
_0-1_
  6
CONTINUOUS
 62
    1
 10
8113.6826715775242
 20
3727.9766393141331
 11
8113.6826715775242
 21
3782.0405151150089
  0
LINE
  8
_0-1_
  6
CONTINUOUS
 62
    1
 10
8113.6826715775242
 20
3782.0405151150089
 11
8080.1884161795242
 21
3782.0405151150089
  0
LINE
  8
_0-1_
  6
CONTINUOUS
 62
    1
 10
8065.495609098306
 20
3693.1474685338335
 11
8065.495609098306
 21
3711.9942526722689
  0
LINE
  8
_0-1_
  6
CONTINUOUS
 62
    1
 10
8096.9355438785242
 20
3818.6778895237508
 11
8096.9355438785242
 21
3754.5603148922773
  0
LINE
  8
_0-1_
  6
CONTINUOUS
 62
    1
 10
7977.6941350888037
 20
3762.2752063850085
 11
7977.6941350888037
 21
3782.0405151150089
  0
LINE
  8
_0-1_
  6
CONTINUOUS
 62
    1
 10
7866.7246639019822
 20
3757.6407524533565
 11
7718.6185208282923
 21
3524.7069970412667
  0
LINE
  8
_0-1_
  6
CONTINUOUS
 62
    1
 10
7875.1633199198823
 20
3762.2752063850085
 11
7977.6941350888037
 21
3762.2752063850085
  0
ARC
  8
_0-1_
  6
CONTINUOUS
 62
    1
 10
7875.1633199198823
 20
3752.2752063850094
 40
10
 50
90
 51
147.55059743523864
  0
LINE
  8
_0-1_
  6
CONTINUOUS
 62
    1
 10
7849.6664587625946
 20
3777.4060611833561
 11
7697.5218807835417
 21
3538.1208622121358
  0
LINE
  8
_0-1_
  6
CONTINUOUS
 62
    1
 10
7858.1051147804938
 20
3782.0405151150089
 11
8273.8037758408373
 21
3782.0405151150089
  0
ARC
  8
_0-1_
  6
CONTINUOUS
 62
    1
 10
7858.1051147804938
 20
3772.0405151150089
 40
10
 50
90
 51
147.55059743523864
  0
LINE
  8
_0-1_
  6
CONTINUOUS
 62
    1
 10
5231.0002746341761
 20
3686.8042282462325
 11
5231.0002746341761
 21
3686.8042282462325
  0
LINE
  8
_0-1_
  6
CONTINUOUS
 62
    1
 10
5231.0002746341761
 20
3686.8042282462325
 11
5230.8331957199671
 21
3688.7279943074823
  0
LINE
  8
_0-1_
  6
CONTINUOUS
 62
    1
 10
5230.8331957199671
 20
3688.7279943074823
 11
5230.3370355856032
 21
3690.5933077104341
  0
LINE
  8
_0-1_
  6
CONTINUOUS
 62
    1
 10
5230.3370355856032
 20
3690.5933077104341
 11
5229.5268698056971
 21
3692.3434918512326
  0
LINE
  8
_0-1_
  6
CONTINUOUS
 62
    1
 10
5229.5268698056971
 20
3692.3434918512326
 11
5228.4273148575076
 21
3693.9253682703957
  0
LINE
  8
_0-1_
  6
CONTINUOUS
 62
    1
 10
5228.4273148575076
 20
3693.9253682703957
 11
5227.0717801617348
 21
3695.2908724533954
  0
LINE
  8
_0-1_
  6
CONTINUOUS
 62
    1
 10
5227.0717801617348
 20
3695.2908724533954
 11
5225.5014529541759
 21
3696.3985142466095
  0
LINE
  8
_0-1_
  6
CONTINUOUS
 62
    1
 10
5225.5014529541759
 20
3696.3985142466095
 11
5223.7640468324071
 21
3697.2146385146452
  0
LINE
  8
_0-1_
  6
CONTINUOUS
 62
    1
 10
5223.7640468324071
 20
3697.2146385146452
 11
5221.9123520022704
 21
3697.7144477345973
  0
LINE
  8
_0-1_
  6
CONTINUOUS
 62
    1
 10
5221.9123520022704
 20
3697.7144477345973
 11
5220.0026312741757
 21
3697.8827554562326
  0
LINE
  8
_0-1_
  6
CONTINUOUS
 62
    1
 10
5220.0026312741757
 20
3697.8827554562326
 11
5218.0929105460809
 21
3697.7144477345973
  0
LINE
  8
_0-1_
  6
CONTINUOUS
 62
    1
 10
5218.0929105460809
 20
3697.7144477345973
 11
5216.2412157159442
 21
3697.2146385146452
  0
LINE
  8
_0-1_
  6
CONTINUOUS
 62
    1
 10
5216.2412157159442
 20
3697.2146385146452
 11
5214.5038095941754
 21
3696.3985142466095
  0
LINE
  8
_0-1_
  6
CONTINUOUS
 62
    1
 10
5214.5038095941754
 20
3696.3985142466095
 11
5212.9334823866166
 21
3695.2908724533954
  0
LINE
  8
_0-1_
  6
CONTINUOUS
 62
    1
 10
5212.9334823866166
 20
3695.2908724533954
 11
5211.5779476908438
 21
3693.9253682703957
  0
LINE
  8
_0-1_
  6
CONTINUOUS
 62
    1
 10
5211.5779476908438
 20
3693.9253682703957
 11
5210.4783927426543
 21
3692.3434918512326
  0
LINE
  8
_0-1_
  6
CONTINUOUS
 62
    1
 10
5210.4783927426543
 20
3692.3434918512326
 11
5209.6682269627481
 21
3690.5933077104341
  0
LINE
  8
_0-1_
  6
CONTINUOUS
 62
    1
 10
5209.6682269627481
 20
3690.5933077104341
 11
5209.1720668283842
 21
3688.7279943074823
  0
LINE
  8
_0-1_
  6
CONTINUOUS
 62
    1
 10
5209.1720668283842
 20
3688.7279943074823
 11
5209.0049879141752
 21
3686.8042282462325
  0
LINE
  8
_0-1_
  6
CONTINUOUS
 62
    1
 10
5209.0049879141752
 20
3686.8042282462325
 11
5209.1720668283842
 21
3684.8804621849827
  0
LINE
  8
_0-1_
  6
CONTINUOUS
 62
    1
 10
5209.1720668283842
 20
3684.8804621849827
 11
5209.6682269627481
 21
3683.0151487820308
  0
LINE
  8
_0-1_
  6
CONTINUOUS
 62
    1
 10
5209.6682269627481
 20
3683.0151487820308
 11
5210.4783927426543
 21
3681.2649646412324
  0
LINE
  8
_0-1_
  6
CONTINUOUS
 62
    1
 10
5210.4783927426543
 20
3681.2649646412324
 11
5211.5779476908438
 21
3679.6830882220693
  0
LINE
  8
_0-1_
  6
CONTINUOUS
 62
    1
 10
5211.5779476908438
 20
3679.6830882220693
 11
5212.9334823866166
 21
3678.3175840390695
  0
LINE
  8
_0-1_
  6
CONTINUOUS
 62
    1
 10
5212.9334823866166
 20
3678.3175840390695
 11
5214.5038095941754
 21
3677.2099422458555
  0
LINE
  8
_0-1_
  6
CONTINUOUS
 62
    1
 10
5214.5038095941754
 20
3677.2099422458555
 11
5216.2412157159442
 21
3676.3938179778197
  0
LINE
  8
_0-1_
  6
CONTINUOUS
 62
    1
 10
5216.2412157159442
 20
3676.3938179778197
 11
5218.0929105460809
 21
3675.8940087578676
  0
LINE
  8
_0-1_
  6
CONTINUOUS
 62
    1
 10
5218.0929105460809
 20
3675.8940087578676
 11
5220.0026312741757
 21
3675.7257010362323
  0
LINE
  8
_0-1_
  6
CONTINUOUS
 62
    1
 10
5220.0026312741757
 20
3675.7257010362323
 11
5221.9123520022704
 21
3675.8940087578676
  0
LINE
  8
_0-1_
  6
CONTINUOUS
 62
    1
 10
5221.9123520022704
 20
3675.8940087578676
 11
5223.7640468324071
 21
3676.3938179778197
  0
LINE
  8
_0-1_
  6
CONTINUOUS
 62
    1
 10
5223.7640468324071
 20
3676.3938179778197
 11
5225.5014529541759
 21
3677.2099422458555
  0
LINE
  8
_0-1_
  6
CONTINUOUS
 62
    1
 10
5225.5014529541759
 20
3677.2099422458555
 11
5227.0717801617348
 21
3678.3175840390695
  0
LINE
  8
_0-1_
  6
CONTINUOUS
 62
    1
 10
5227.0717801617348
 20
3678.3175840390695
 11
5228.4273148575076
 21
3679.6830882220693
  0
LINE
  8
_0-1_
  6
CONTINUOUS
 62
    1
 10
5228.4273148575076
 20
3679.6830882220693
 11
5229.5268698056971
 21
3681.2649646412324
  0
LINE
  8
_0-1_
  6
CONTINUOUS
 62
    1
 10
5229.5268698056971
 20
3681.2649646412324
 11
5230.3370355856032
 21
3683.0151487820308
  0
LINE
  8
_0-1_
  6
CONTINUOUS
 62
    1
 10
5230.3370355856032
 20
3683.0151487820308
 11
5230.8331957199671
 21
3684.8804621849822
  0
LINE
  8
_0-1_
  6
CONTINUOUS
 62
    1
 10
5230.8331957199671
 20
3684.8804621849822
 11
5231.0002746341761
 21
3686.8042282462325
  0
LINE
  8
_0-1_
  6
CONTINUOUS
 62
    1
 10
5231.0002746341761
 20
3686.8042282462325
 11
5231.0002746341761
 21
3686.8042282462325
  0
LINE
  8
_0-1_
  6
CONTINUOUS
 62
    1
 10
5237.7617686391914
 20
3707.9825348251647
 11
5200.9376749852636
 21
3707.9825348251647
  0
LINE
  8
_0-1_
  6
CONTINUOUS
 62
    1
 10
5065.5895435231942
 20
3469.8252425198475
 11
5063.7430880303637
 21
3468.7280960993876
  0
LINE
  8
_0-1_
  6
CONTINUOUS
 62
    1
 10
5063.7430880303637
 20
3468.7280960993876
 11
5060.5929275122462
 21
3466.8076440637392
  0
LINE
  8
_0-1_
  6
CONTINUOUS
 62
    1
 10
5060.5929275122462
 20
3466.8076440637392
 11
5057.5354987581331
 21
3464.8071357052158
  0
LINE
  8
_0-1_
  6
CONTINUOUS
 62
    1
 10
5057.5354987581331
 20
3464.8071357052158
 11
5054.6294927579002
 21
3462.6759024650369
  0
LINE
  8
_0-1_
  6
CONTINUOUS
 62
    1
 10
5054.6294927579002
 20
3462.6759024650369
 11
5051.9336005014193
 21
3460.3632757844198
  0
LINE
  8
_0-1_
  6
CONTINUOUS
 62
    1
 10
5051.9336005014193
 20
3460.3632757844198
 11
5049.5065129785789
 21
3457.8185871045835
  0
LINE
  8
_0-1_
  6
CONTINUOUS
 62
    1
 10
5049.5065129785789
 20
3457.8185871045835
 11
5048.2450958462177
 21
3456.2163708153107
  0
LINE
  8
_0-1_
  6
CONTINUOUS
 62
    1
 10
5048.2450958462177
 20
3456.2163708153107
 11
5047.7709141583518
 21
3455.5431959472699
  0
LINE
  8
_0-1_
  6
CONTINUOUS
 62
    1
 10
5047.7709141583518
 20
3455.5431959472699
 11
5046.9941717766487
 21
3454.3473159692794
  0
LINE
  8
_0-1_
  6
CONTINUOUS
 62
    1
 10
5046.9941717766487
 20
3454.3473159692794
 11
5046.2609234652891
 21
3453.1138870955501
  0
LINE
  8
_0-1_
  6
CONTINUOUS
 62
    1
 10
5046.2609234652891
 20
3453.1138870955501
 11
5045.5616727023626
 21
3451.8511077749336
  0
LINE
  8
_0-1_
  6
CONTINUOUS
 62
    1
 10
5045.5616727023626
 20
3451.8511077749336
 11
5044.8869229659549
 21
3450.5671764562812
  0
LINE
  8
_0-1_
  6
CONTINUOUS
 62
    1
 10
5044.8869229659549
 20
3450.5671764562812
 11
5044.227177734163
 21
3449.2702915884438
  0
LINE
  8
_0-1_
  6
CONTINUOUS
 62
    1
 10
5044.227177734163
 20
3449.2702915884438
 11
5043.8476584402879
 21
3448.5153936640281
  0
LINE
  8
_0-1_
  6
CONTINUOUS
 62
    1
 10
5065.5895435231942
 20
3469.8252425198475
 11
5072.8918956962643
 21
3471.3050333145275
  0
LINE
  8
_0-1_
  6
CONTINUOUS
 62
    1
 10
5072.8918956962643
 20
3471.3050333145275
 11
5085.4865232511174
 21
3473.818282147372
  0
LINE
  8
_0-1_
  6
CONTINUOUS
 62
    1
 10
5085.4865232511174
 20
3473.818282147372
 11
5098.0932763267929
 21
3476.2256570739396
  0
LINE
  8
_0-1_
  6
CONTINUOUS
 62
    1
 10
5098.0932763267929
 20
3476.2256570739396
 11
5110.7198293035626
 21
3478.4601492927891
  0
LINE
  8
_0-1_
  6
CONTINUOUS
 62
    1
 10
5110.7198293035626
 20
3478.4601492927891
 11
5123.3738565616904
 21
3480.454750002481
  0
LINE
  8
_0-1_
  6
CONTINUOUS
 62
    1
 10
5123.3738565616904
 20
3480.454750002481
 11
5136.0630324814483
 21
3482.142450401574
  0
LINE
  8
_0-1_
  6
CONTINUOUS
 62
    1
 10
5136.0630324814483
 20
3482.142450401574
 11
5143.4418837365538
 21
3482.9542899585049
  0
LINE
  8
_0-1_
  6
CONTINUOUS
 62
    1
 10
5143.4418837365538
 20
3482.9542899585049
 11
5147.8240236094816
 21
3483.3721121331819
  0
LINE
  8
_0-1_
  6
CONTINUOUS
 62
    1
 10
5147.8240236094816
 20
3483.3721121331819
 11
5155.3910308635668
 21
3483.9912650507217
  0
LINE
  8
_0-1_
  6
CONTINUOUS
 62
    1
 10
5155.3910308635668
 20
3483.9912650507217
 11
5162.9703936311416
 21
3484.5025358825637
  0
LINE
  8
_0-1_
  6
CONTINUOUS
 62
    1
 10
5162.9703936311416
 20
3484.5025358825637
 11
5170.5594142018272
 21
3484.9294796692534
  0
LINE
  8
_0-1_
  6
CONTINUOUS
 62
    1
 10
5170.5594142018272
 20
3484.9294796692534
 11
5178.1553948652654
 21
3485.2956514513353
  0
LINE
  8
_0-1_
  6
CONTINUOUS
 62
    1
 10
5178.1553948652654
 20
3485.2956514513353
 11
5185.7556379110829
 21
3485.6246062693563
  0
LINE
  8
_0-1_
  6
CONTINUOUS
 62
    1
 10
5185.7556379110829
 20
3485.6246062693563
 11
5190.1646688630963
 21
3485.8076291617126
  0
LINE
  8
_0-1_
  6
CONTINUOUS
 62
    1
 10
5185.7556379110829
 20
3485.6246062693563
 11
5189.8769349759705
 21
3487.0897165709871
  0
LINE
  8
_0-1_
  6
CONTINUOUS
 62
    1
 10
5189.8769349759705
 20
3487.0897165709871
 11
5196.990913294334
 21
3489.5741567672703
  0
LINE
  8
_0-1_
  6
CONTINUOUS
 62
    1
 10
5196.990913294334
 20
3489.5741567672703
 11
5204.1279297341507
 21
3491.9430079415888
  0
LINE
  8
_0-1_
  6
CONTINUOUS
 62
    1
 10
5204.1279297341507
 20
3491.9430079415888
 11
5211.3025653849572
 21
3494.1231124851056
  0
LINE
  8
_0-1_
  6
CONTINUOUS
 62
    1
 10
5211.3025653849572
 20
3494.1231124851056
 11
5218.5294013362782
 21
3496.0413127889806
  0
LINE
  8
_0-1_
  6
CONTINUOUS
 62
    1
 10
5218.5294013362782
 20
3496.0413127889806
 11
5225.8230186776391
 21
3497.6244512443777
  0
LINE
  8
_0-1_
  6
CONTINUOUS
 62
    1
 10
5225.8230186776391
 20
3497.6244512443777
 11
5230.089661676041
 21
3498.3603183074565
  0
LINE
  8
_0-1_
  6
CONTINUOUS
 62
    1
 10
5230.089661676041
 20
3498.3603183074565
 11
5231.4437577746703
 21
3498.5622842665903
  0
LINE
  8
_0-1_
  6
CONTINUOUS
 62
    1
 10
5231.4437577746703
 20
3498.5622842665903
 11
5233.7846612723952
 21
3498.8791180054013
  0
LINE
  8
_0-1_
  6
CONTINUOUS
 62
    1
 10
5233.7846612723952
 20
3498.8791180054013
 11
5236.132230848224
 21
3499.1625060724273
  0
LINE
  8
_0-1_
  6
CONTINUOUS
 62
    1
 10
5236.132230848224
 20
3499.1625060724273
 11
5238.4850110265943
 21
3499.4197510160925
  0
LINE
  8
_0-1_
  6
CONTINUOUS
 62
    1
 10
5238.4850110265943
 20
3499.4197510160925
 11
5240.8415463319297
 21
3499.6581553848223
  0
LINE
  8
_0-1_
  6
CONTINUOUS
 62
    1
 10
5240.8415463319297
 20
3499.6581553848223
 11
5243.2003812886678
 21
3499.885021727041
  0
LINE
  8
_0-1_
  6
CONTINUOUS
 62
    1
 10
5243.2003812886678
 20
3499.885021727041
 11
5244.568985730788
 21
3500.0141950655925
  0
LINE
  8
_0-1_
  6
CONTINUOUS
 62
    1
 10
5244.568985730788
 20
3500.0141950655916
 11
5237.059678984011
 21
3718.4401458376697
  0
LINE
  8
_0-1_
  6
CONTINUOUS
 62
    1
 10
5237.059678984011
 20
3724.4225324796075
 11
5237.059678984011
 21
3718.4401458377429
  0
LINE
  8
_0-1_
  6
CONTINUOUS
 62
    1
 10
5247.0596789840129
 20
3734.4225324796071
 11
5323.8478811971927
 21
3734.4225324796071
  0
ARC
  8
_0-1_
  6
CONTINUOUS
 62
    1
 10
5247.0596789840129
 20
3724.4225324796075
 40
10
 50
90
 51
180
  0
LINE
  8
_0-1_
  6
CONTINUOUS
 62
    1
 10
5200.9811861416811
 20
3692.9867152599586
 11
5195.2678478984781
 21
3692.9867152599586
  0
LINE
  8
_0-1_
  6
CONTINUOUS
 62
    1
 10
5237.7617686391914
 20
3666.9413444361785
 11
5195.2678478984781
 21
3666.9413444361785
  0
LINE
  8
_0-1_
  6
CONTINUOUS
 62
    1
 10
5195.2678478984781
 20
3692.9867152599577
 11
5195.2678478984781
 21
3692.9867152599577
  0
LINE
  8
_0-1_
  6
CONTINUOUS
 62
    1
 10
5195.2678478984781
 20
3692.9867152599577
 11
5193.5313661218088
 21
3692.7888714067362
  0
LINE
  8
_0-1_
  6
CONTINUOUS
 62
    1
 10
5193.5313661218088
 20
3692.7888714067362
 11
5191.8476464652204
 21
3692.201351232437
  0
LINE
  8
_0-1_
  6
CONTINUOUS
 62
    1
 10
5191.8476464652204
 20
3692.201351232437
 11
5190.2678478984772
 21
3691.2420062402575
  0
LINE
  8
_0-1_
  6
CONTINUOUS
 62
    1
 10
5190.2678478984772
 20
3691.2420062402575
 11
5188.8399718016108
 21
3689.9399856423329
  0
LINE
  8
_0-1_
  6
CONTINUOUS
 62
    1
 10
5188.8399718016108
 20
3689.9399856423329
 11
5187.6074034672865
 21
3688.3348506756765
  0
LINE
  8
_0-1_
  6
CONTINUOUS
 62
    1
 10
5187.6074034672865
 20
3688.3348506756765
 11
5186.6075938606318
 21
3686.4753725540131
  0
LINE
  8
_0-1_
  6
CONTINUOUS
 62
    1
 10
5186.6075938606318
 20
3686.4753725540131
 11
5185.8709216906173
 21
3684.4180505791278
  0
LINE
  8
_0-1_
  6
CONTINUOUS
 62
    1
 10
5185.8709216906173
 20
3684.4180505791278
 11
5185.419770368354
 21
3682.2253954381727
  0
LINE
  8
_0-1_
  6
CONTINUOUS
 62
    1
 10
5185.419770368354
 20
3682.2253954381727
 11
5185.2678478984762
 21
3679.9640298480681
  0
LINE
  8
_0-1_
  6
CONTINUOUS
 62
    1
 10
5185.2678478984762
 20
3679.9640298480681
 11
5185.419770368354
 21
3677.7026642579635
  0
LINE
  8
_0-1_
  6
CONTINUOUS
 62
    1
 10
5185.419770368354
 20
3677.7026642579635
 11
5185.8709216906173
 21
3675.5100091170084
  0
LINE
  8
_0-1_
  6
CONTINUOUS
 62
    1
 10
5185.8709216906173
 20
3675.5100091170084
 11
5186.6075938606318
 21
3673.4526871421231
  0
LINE
  8
_0-1_
  6
CONTINUOUS
 62
    1
 10
5186.6075938606318
 20
3673.4526871421231
 11
5187.6074034672865
 21
3671.5932090204597
  0
LINE
  8
_0-1_
  6
CONTINUOUS
 62
    1
 10
5187.6074034672865
 20
3671.5932090204597
 11
5188.8399718016108
 21
3669.9880740538033
  0
LINE
  8
_0-1_
  6
CONTINUOUS
 62
    1
 10
5188.8399718016108
 20
3669.9880740538033
 11
5190.2678478984772
 21
3668.6860534558787
  0
LINE
  8
_0-1_
  6
CONTINUOUS
 62
    1
 10
5190.2678478984772
 20
3668.6860534558787
 11
5191.8476464652204
 21
3667.7267084636992
  0
LINE
  8
_0-1_
  6
CONTINUOUS
 62
    1
 10
5191.8476464652204
 20
3667.7267084636992
 11
5193.5313661218088
 21
3667.1391882894
  0
LINE
  8
_0-1_
  6
CONTINUOUS
 62
    1
 10
5193.5313661218088
 20
3667.1391882894
 11
5195.2678478984781
 21
3666.9413444361785
  0
LINE
  8
_0-1_
  6
CONTINUOUS
 62
    1
 10
5195.2678478984781
 20
3666.9413444361785
 11
5195.2678478984781
 21
3666.9413444361785
  0
LINE
  8
_0-1_
  6
CONTINUOUS
 62
    1
 10
5237.059678984011
 20
3718.4401458377429
 11
5323.8478811971927
 21
3718.4401458377429
  0
LINE
  8
_0-1_
  6
CONTINUOUS
 62
    1
 10
5044.227177734163
 20
3448.5153936640281
 11
5323.8478811971927
 21
3448.5153936640281
  0
LINE
  8
_0-1_
  6
CONTINUOUS
 62
    1
 10
5065.5895435231942
 20
3469.8252425198475
 11
5323.8478811971927
 21
3469.8252425198475
  0
LINE
  8
_0-1_
  6
CONTINUOUS
 62
    1
 10
5190.1646688630963
 20
3485.8076291617126
 11
5323.8478811971927
 21
3485.8076291617126
  0
LINE
  8
_0-1_
  6
CONTINUOUS
 62
    1
 10
5244.568985730788
 20
3500.0141950655925
 11
5323.8478811971927
 21
3500.0141950655925
  0
LINE
  8
_0-1_
  6
CONTINUOUS
 62
    1
 10
5416.6954877602102
 20
3686.8042282462325
 11
5416.6954877602102
 21
3686.8042282462325
  0
LINE
  8
_0-1_
  6
CONTINUOUS
 62
    1
 10
5416.6954877602102
 20
3686.8042282462325
 11
5416.8625666744192
 21
3684.8804621849827
  0
LINE
  8
_0-1_
  6
CONTINUOUS
 62
    1
 10
5416.8625666744192
 20
3684.8804621849827
 11
5417.3587268087831
 21
3683.0151487820308
  0
LINE
  8
_0-1_
  6
CONTINUOUS
 62
    1
 10
5417.3587268087831
 20
3683.0151487820308
 11
5418.1688925886892
 21
3681.2649646412324
  0
LINE
  8
_0-1_
  6
CONTINUOUS
 62
    1
 10
5418.1688925886892
 20
3681.2649646412324
 11
5419.2684475368787
 21
3679.6830882220693
  0
LINE
  8
_0-1_
  6
CONTINUOUS
 62
    1
 10
5419.2684475368787
 20
3679.6830882220693
 11
5420.6239822326515
 21
3678.3175840390695
  0
LINE
  8
_0-1_
  6
CONTINUOUS
 62
    1
 10
5420.6239822326515
 20
3678.3175840390695
 11
5422.1943094402104
 21
3677.2099422458555
  0
LINE
  8
_0-1_
  6
CONTINUOUS
 62
    1
 10
5422.1943094402104
 20
3677.2099422458555
 11
5423.9317155619792
 21
3676.3938179778197
  0
LINE
  8
_0-1_
  6
CONTINUOUS
 62
    1
 10
5423.9317155619792
 20
3676.3938179778197
 11
5425.7834103921159
 21
3675.8940087578676
  0
LINE
  8
_0-1_
  6
CONTINUOUS
 62
    1
 10
5425.7834103921159
 20
3675.8940087578676
 11
5427.6931311202106
 21
3675.7257010362323
  0
LINE
  8
_0-1_
  6
CONTINUOUS
 62
    1
 10
5427.6931311202106
 20
3675.7257010362323
 11
5429.6028518483054
 21
3675.8940087578676
  0
LINE
  8
_0-1_
  6
CONTINUOUS
 62
    1
 10
5429.6028518483054
 20
3675.8940087578676
 11
5431.4545466784421
 21
3676.3938179778197
  0
LINE
  8
_0-1_
  6
CONTINUOUS
 62
    1
 10
5431.4545466784421
 20
3676.3938179778197
 11
5433.1919528002109
 21
3677.2099422458555
  0
LINE
  8
_0-1_
  6
CONTINUOUS
 62
    1
 10
5433.1919528002109
 20
3677.2099422458555
 11
5434.7622800077697
 21
3678.3175840390695
  0
LINE
  8
_0-1_
  6
CONTINUOUS
 62
    1
 10
5434.7622800077697
 20
3678.3175840390695
 11
5436.1178147035425
 21
3679.6830882220693
  0
LINE
  8
_0-1_
  6
CONTINUOUS
 62
    1
 10
5436.1178147035425
 20
3679.6830882220693
 11
5437.217369651732
 21
3681.2649646412324
  0
LINE
  8
_0-1_
  6
CONTINUOUS
 62
    1
 10
5437.217369651732
 20
3681.2649646412324
 11
5438.0275354316382
 21
3683.0151487820308
  0
LINE
  8
_0-1_
  6
CONTINUOUS
 62
    1
 10
5438.0275354316382
 20
3683.0151487820308
 11
5438.5236955660021
 21
3684.8804621849827
  0
LINE
  8
_0-1_
  6
CONTINUOUS
 62
    1
 10
5438.5236955660021
 20
3684.8804621849827
 11
5438.6907744802111
 21
3686.8042282462325
  0
LINE
  8
_0-1_
  6
CONTINUOUS
 62
    1
 10
5438.6907744802111
 20
3686.8042282462325
 11
5438.5236955660021
 21
3688.7279943074823
  0
LINE
  8
_0-1_
  6
CONTINUOUS
 62
    1
 10
5438.5236955660021
 20
3688.7279943074823
 11
5438.0275354316382
 21
3690.5933077104341
  0
LINE
  8
_0-1_
  6
CONTINUOUS
 62
    1
 10
5438.0275354316382
 20
3690.5933077104341
 11
5437.217369651732
 21
3692.3434918512326
  0
LINE
  8
_0-1_
  6
CONTINUOUS
 62
    1
 10
5437.217369651732
 20
3692.3434918512326
 11
5436.1178147035425
 21
3693.9253682703957
  0
LINE
  8
_0-1_
  6
CONTINUOUS
 62
    1
 10
5436.1178147035425
 20
3693.9253682703957
 11
5434.7622800077697
 21
3695.2908724533954
  0
LINE
  8
_0-1_
  6
CONTINUOUS
 62
    1
 10
5434.7622800077697
 20
3695.2908724533954
 11
5433.1919528002109
 21
3696.3985142466095
  0
LINE
  8
_0-1_
  6
CONTINUOUS
 62
    1
 10
5433.1919528002109
 20
3696.3985142466095
 11
5431.4545466784421
 21
3697.2146385146452
  0
LINE
  8
_0-1_
  6
CONTINUOUS
 62
    1
 10
5431.4545466784421
 20
3697.2146385146452
 11
5429.6028518483054
 21
3697.7144477345973
  0
LINE
  8
_0-1_
  6
CONTINUOUS
 62
    1
 10
5429.6028518483054
 20
3697.7144477345973
 11
5427.6931311202106
 21
3697.8827554562326
  0
LINE
  8
_0-1_
  6
CONTINUOUS
 62
    1
 10
5427.6931311202106
 20
3697.8827554562326
 11
5425.7834103921159
 21
3697.7144477345973
  0
LINE
  8
_0-1_
  6
CONTINUOUS
 62
    1
 10
5425.7834103921159
 20
3697.7144477345973
 11
5423.9317155619792
 21
3697.2146385146452
  0
LINE
  8
_0-1_
  6
CONTINUOUS
 62
    1
 10
5423.9317155619792
 20
3697.2146385146452
 11
5422.1943094402104
 21
3696.3985142466095
  0
LINE
  8
_0-1_
  6
CONTINUOUS
 62
    1
 10
5422.1943094402104
 20
3696.3985142466095
 11
5420.6239822326515
 21
3695.2908724533954
  0
LINE
  8
_0-1_
  6
CONTINUOUS
 62
    1
 10
5420.6239822326515
 20
3695.2908724533954
 11
5419.2684475368787
 21
3693.9253682703957
  0
LINE
  8
_0-1_
  6
CONTINUOUS
 62
    1
 10
5419.2684475368787
 20
3693.9253682703957
 11
5418.1688925886892
 21
3692.3434918512326
  0
LINE
  8
_0-1_
  6
CONTINUOUS
 62
    1
 10
5418.1688925886892
 20
3692.3434918512326
 11
5417.3587268087831
 21
3690.5933077104341
  0
LINE
  8
_0-1_
  6
CONTINUOUS
 62
    1
 10
5417.3587268087831
 20
3690.5933077104341
 11
5416.8625666744192
 21
3688.7279943074827
  0
LINE
  8
_0-1_
  6
CONTINUOUS
 62
    1
 10
5416.8625666744192
 20
3688.7279943074827
 11
5416.6954877602102
 21
3686.8042282462325
  0
LINE
  8
_0-1_
  6
CONTINUOUS
 62
    1
 10
5416.6954877602102
 20
3686.8042282462325
 11
5416.6954877602102
 21
3686.8042282462325
  0
LINE
  8
_0-1_
  6
CONTINUOUS
 62
    1
 10
5409.9339937551949
 20
3707.9825348251647
 11
5446.7580874091227
 21
3707.9825348251647
  0
LINE
  8
_0-1_
  6
CONTINUOUS
 62
    1
 10
5582.1062188711921
 20
3469.8252425198475
 11
5583.9526743640217
 21
3468.728096099388
  0
LINE
  8
_0-1_
  6
CONTINUOUS
 62
    1
 10
5583.9526743640217
 20
3468.728096099388
 11
5587.1028348821401
 21
3466.8076440637392
  0
LINE
  8
_0-1_
  6
CONTINUOUS
 62
    1
 10
5587.1028348821401
 20
3466.8076440637392
 11
5590.1602636362522
 21
3464.8071357052158
  0
LINE
  8
_0-1_
  6
CONTINUOUS
 62
    1
 10
5590.1602636362522
 20
3464.8071357052158
 11
5593.0662696364861
 21
3462.6759024650369
  0
LINE
  8
_0-1_
  6
CONTINUOUS
 62
    1
 10
5593.0662696364861
 20
3462.6759024650369
 11
5595.7621618929661
 21
3460.3632757844198
  0
LINE
  8
_0-1_
  6
CONTINUOUS
 62
    1
 10
5595.7621618929661
 20
3460.3632757844198
 11
5598.1892494158074
 21
3457.8185871045835
  0
LINE
  8
_0-1_
  6
CONTINUOUS
 62
    1
 10
5598.1892494158074
 20
3457.8185871045835
 11
5599.4506665481676
 21
3456.2163708153107
  0
LINE
  8
_0-1_
  6
CONTINUOUS
 62
    1
 10
5599.4506665481676
 20
3456.2163708153107
 11
5599.9248482360344
 21
3455.5431959472699
  0
LINE
  8
_0-1_
  6
CONTINUOUS
 62
    1
 10
5599.9248482360344
 20
3455.5431959472699
 11
5600.7015906177376
 21
3454.3473159692794
  0
LINE
  8
_0-1_
  6
CONTINUOUS
 62
    1
 10
5600.7015906177376
 20
3454.3473159692794
 11
5601.4348389290972
 21
3453.1138870955501
  0
LINE
  8
_0-1_
  6
CONTINUOUS
 62
    1
 10
5601.4348389290972
 20
3453.1138870955501
 11
5602.1340896920237
 21
3451.8511077749336
  0
LINE
  8
_0-1_
  6
CONTINUOUS
 62
    1
 10
5602.1340896920237
 20
3451.8511077749336
 11
5602.8088394284314
 21
3450.5671764562812
  0
LINE
  8
_0-1_
  6
CONTINUOUS
 62
    1
 10
5602.8088394284314
 20
3450.5671764562812
 11
5603.4685846602233
 21
3449.2702915884438
  0
LINE
  8
_0-1_
  6
CONTINUOUS
 62
    1
 10
5603.4685846602233
 20
3449.2702915884438
 11
5603.8481039540984
 21
3448.5153936640281
  0
LINE
  8
_0-1_
  6
CONTINUOUS
 62
    1
 10
5582.1062188711921
 20
3469.8252425198475
 11
5574.803866698122
 21
3471.3050333145275
  0
LINE
  8
_0-1_
  6
CONTINUOUS
 62
    1
 10
5574.803866698122
 20
3471.3050333145275
 11
5562.2092391432689
 21
3473.818282147372
  0
LINE
  8
_0-1_
  6
CONTINUOUS
 62
    1
 10
5562.2092391432689
 20
3473.818282147372
 11
5549.6024860675934
 21
3476.2256570739396
  0
LINE
  8
_0-1_
  6
CONTINUOUS
 62
    1
 10
5549.6024860675934
 20
3476.2256570739396
 11
5536.9759330908237
 21
3478.4601492927891
  0
LINE
  8
_0-1_
  6
CONTINUOUS
 62
    1
 10
5536.9759330908237
 20
3478.4601492927891
 11
5524.3219058326958
 21
3480.454750002481
  0
LINE
  8
_0-1_
  6
CONTINUOUS
 62
    1
 10
5524.3219058326958
 20
3480.454750002481
 11
5511.632729912938
 21
3482.142450401574
  0
LINE
  8
_0-1_
  6
CONTINUOUS
 62
    1
 10
5511.632729912938
 20
3482.142450401574
 11
5504.2538786578316
 21
3482.9542899585049
  0
LINE
  8
_0-1_
  6
CONTINUOUS
 62
    1
 10
5504.2538786578316
 20
3482.9542899585049
 11
5499.8717387849038
 21
3483.3721121331819
  0
LINE
  8
_0-1_
  6
CONTINUOUS
 62
    1
 10
5499.8717387849038
 20
3483.3721121331819
 11
5492.3047315308195
 21
3483.9912650507217
  0
LINE
  8
_0-1_
  6
CONTINUOUS
 62
    1
 10
5492.3047315308195
 20
3483.9912650507217
 11
5484.7253687632447
 21
3484.5025358825637
  0
LINE
  8
_0-1_
  6
CONTINUOUS
 62
    1
 10
5484.7253687632447
 20
3484.5025358825637
 11
5477.1363481925591
 21
3484.9294796692534
  0
LINE
  8
_0-1_
  6
CONTINUOUS
 62
    1
 10
5477.1363481925591
 20
3484.9294796692534
 11
5469.54036752912
 21
3485.2956514513357
  0
LINE
  8
_0-1_
  6
CONTINUOUS
 62
    1
 10
5469.54036752912
 20
3485.2956514513357
 11
5461.9401244833025
 21
3485.6246062693563
  0
LINE
  8
_0-1_
  6
CONTINUOUS
 62
    1
 10
5461.9401244833025
 20
3485.6246062693563
 11
5457.53109353129
 21
3485.8076291617126
  0
LINE
  8
_0-1_
  6
CONTINUOUS
 62
    1
 10
5461.9401244833025
 20
3485.6246062693563
 11
5457.8188274184158
 21
3487.0897165709871
  0
LINE
  8
_0-1_
  6
CONTINUOUS
 62
    1
 10
5457.8188274184158
 20
3487.0897165709871
 11
5450.7048491000514
 21
3489.5741567672703
  0
LINE
  8
_0-1_
  6
CONTINUOUS
 62
    1
 10
5450.7048491000514
 20
3489.5741567672703
 11
5443.5678326602356
 21
3491.9430079415888
  0
LINE
  8
_0-1_
  6
CONTINUOUS
 62
    1
 10
5443.5678326602356
 20
3491.9430079415888
 11
5436.3931970094281
 21
3494.1231124851056
  0
LINE
  8
_0-1_
  6
CONTINUOUS
 62
    1
 10
5436.3931970094281
 20
3494.1231124851056
 11
5429.1663610581081
 21
3496.0413127889806
  0
LINE
  8
_0-1_
  6
CONTINUOUS
 62
    1
 10
5429.1663610581081
 20
3496.0413127889806
 11
5421.8727437167472
 21
3497.6244512443777
  0
LINE
  8
_0-1_
  6
CONTINUOUS
 62
    1
 10
5421.8727437167472
 20
3497.6244512443777
 11
5417.6061007183453
 21
3498.3603183074565
  0
LINE
  8
_0-1_
  6
CONTINUOUS
 62
    1
 10
5417.6061007183453
 20
3498.3603183074565
 11
5416.252004619716
 21
3498.5622842665903
  0
LINE
  8
_0-1_
  6
CONTINUOUS
 62
    1
 10
5416.252004619716
 20
3498.5622842665903
 11
5413.9111011219911
 21
3498.8791180054013
  0
LINE
  8
_0-1_
  6
CONTINUOUS
 62
    1
 10
5413.9111011219911
 20
3498.8791180054013
 11
5411.5635315461614
 21
3499.1625060724273
  0
LINE
  8
_0-1_
  6
CONTINUOUS
 62
    1
 10
5411.5635315461614
 20
3499.1625060724273
 11
5409.210751367792
 21
3499.4197510160925
  0
LINE
  8
_0-1_
  6
CONTINUOUS
 62
    1
 10
5409.210751367792
 20
3499.4197510160925
 11
5406.8542160624556
 21
3499.6581553848223
  0
LINE
  8
_0-1_
  6
CONTINUOUS
 62
    1
 10
5406.8542160624556
 20
3499.6581553848223
 11
5404.4953811057185
 21
3499.885021727041
  0
LINE
  8
_0-1_
  6
CONTINUOUS
 62
    1
 10
5404.4953811057185
 20
3499.885021727041
 11
5403.1267766635974
 21
3500.0141950655925
  0
LINE
  8
_0-1_
  6
CONTINUOUS
 62
    1
 10
5403.1267766635974
 20
3500.0141950655925
 11
5410.6360834103752
 21
3718.4401458376697
  0
LINE
  8
_0-1_
  6
CONTINUOUS
 62
    1
 10
5410.6360834103752
 20
3724.4225324796075
 11
5410.6360834103752
 21
3718.4401458377429
  0
LINE
  8
_0-1_
  6
CONTINUOUS
 62
    1
 10
5400.6360834103734
 20
3734.4225324796071
 11
5323.8478811971927
 21
3734.4225324796071
  0
ARC
  8
_0-1_
  6
CONTINUOUS
 62
    1
 10
5400.6360834103734
 20
3724.4225324796075
 40
10
 50
0
 51
90
  0
LINE
  8
_0-1_
  6
CONTINUOUS
 62
    1
 10
5446.7145762527052
 20
3692.9867152599586
 11
5452.4279144959082
 21
3692.9867152599586
  0
LINE
  8
_0-1_
  6
CONTINUOUS
 62
    1
 10
5409.9339937551949
 20
3666.9413444361794
 11
5452.4279144959082
 21
3666.9413444361794
  0
LINE
  8
_0-1_
  6
CONTINUOUS
 62
    1
 10
5452.4279144959082
 20
3666.9413444361794
 11
5452.4279144959082
 21
3666.9413444361794
  0
LINE
  8
_0-1_
  6
CONTINUOUS
 62
    1
 10
5452.4279144959082
 20
3666.9413444361794
 11
5454.1643962725775
 21
3667.1391882894009
  0
LINE
  8
_0-1_
  6
CONTINUOUS
 62
    1
 10
5454.1643962725775
 20
3667.1391882894009
 11
5455.8481159291659
 21
3667.7267084637001
  0
LINE
  8
_0-1_
  6
CONTINUOUS
 62
    1
 10
5455.8481159291659
 20
3667.7267084637001
 11
5457.4279144959091
 21
3668.6860534558796
  0
LINE
  8
_0-1_
  6
CONTINUOUS
 62
    1
 10
5457.4279144959091
 20
3668.6860534558796
 11
5458.8557905927755
 21
3669.9880740538042
  0
LINE
  8
_0-1_
  6
CONTINUOUS
 62
    1
 10
5458.8557905927755
 20
3669.9880740538042
 11
5460.0883589270998
 21
3671.5932090204606
  0
LINE
  8
_0-1_
  6
CONTINUOUS
 62
    1
 10
5460.0883589270998
 20
3671.5932090204606
 11
5461.0881685337545
 21
3673.452687142124
  0
LINE
  8
_0-1_
  6
CONTINUOUS
 62
    1
 10
5461.0881685337545
 20
3673.452687142124
 11
5461.824840703769
 21
3675.5100091170093
  0
LINE
  8
_0-1_
  6
CONTINUOUS
 62
    1
 10
5461.824840703769
 20
3675.5100091170093
 11
5462.2759920260323
 21
3677.7026642579644
  0
LINE
  8
_0-1_
  6
CONTINUOUS
 62
    1
 10
5462.2759920260323
 20
3677.7026642579644
 11
5462.427914495911
 21
3679.964029848069
  0
LINE
  8
_0-1_
  6
CONTINUOUS
 62
    1
 10
5462.427914495911
 20
3679.964029848069
 11
5462.2759920260323
 21
3682.2253954381736
  0
LINE
  8
_0-1_
  6
CONTINUOUS
 62
    1
 10
5462.2759920260323
 20
3682.2253954381736
 11
5461.824840703769
 21
3684.4180505791287
  0
LINE
  8
_0-1_
  6
CONTINUOUS
 62
    1
 10
5461.824840703769
 20
3684.4180505791287
 11
5461.0881685337545
 21
3686.475372554014
  0
LINE
  8
_0-1_
  6
CONTINUOUS
 62
    1
 10
5461.0881685337545
 20
3686.475372554014
 11
5460.0883589270998
 21
3688.3348506756774
  0
LINE
  8
_0-1_
  6
CONTINUOUS
 62
    1
 10
5460.0883589270998
 20
3688.3348506756774
 11
5458.8557905927755
 21
3689.9399856423338
  0
LINE
  8
_0-1_
  6
CONTINUOUS
 62
    1
 10
5458.8557905927755
 20
3689.9399856423338
 11
5457.4279144959091
 21
3691.2420062402584
  0
LINE
  8
_0-1_
  6
CONTINUOUS
 62
    1
 10
5457.4279144959091
 20
3691.2420062402584
 11
5455.8481159291659
 21
3692.2013512324379
  0
LINE
  8
_0-1_
  6
CONTINUOUS
 62
    1
 10
5455.8481159291659
 20
3692.2013512324379
 11
5454.1643962725775
 21
3692.7888714067371
  0
LINE
  8
_0-1_
  6
CONTINUOUS
 62
    1
 10
5454.1643962725775
 20
3692.7888714067371
 11
5452.4279144959082
 21
3692.9867152599586
  0
LINE
  8
_0-1_
  6
CONTINUOUS
 62
    1
 10
5452.4279144959082
 20
3692.9867152599586
 11
5452.4279144959082
 21
3692.9867152599586
  0
LINE
  8
_0-1_
  6
CONTINUOUS
 62
    1
 10
5410.6360834103752
 20
3718.4401458377429
 11
5323.8478811971927
 21
3718.4401458377429
  0
LINE
  8
_0-1_
  6
CONTINUOUS
 62
    1
 10
5603.4685846602233
 20
3448.5153936640281
 11
5323.8478811971927
 21
3448.5153936640281
  0
LINE
  8
_0-1_
  6
CONTINUOUS
 62
    1
 10
5582.1062188711921
 20
3469.8252425198475
 11
5323.8478811971927
 21
3469.8252425198475
  0
LINE
  8
_0-1_
  6
CONTINUOUS
 62
    1
 10
5457.53109353129
 20
3485.8076291617126
 11
5323.8478811971927
 21
3485.8076291617126
  0
LINE
  8
_0-1_
  6
CONTINUOUS
 62
    1
 10
5403.1267766635974
 20
3500.0141950655925
 11
5323.8478811971927
 21
3500.0141950655925
  0
LINE
  8
_0-1_
  6
CONTINUOUS
 62
    1
 10
5446.7580874091227
 20
3675.7257010362332
 11
5446.7580874091227
 21
3707.9825348251647
  0
LINE
  8
_0-1_
  6
CONTINUOUS
 62
    1
 10
5409.1675954976581
 20
3675.7257010362332
 11
5446.7580874091227
 21
3675.7257010362332
  0
LINE
  8
_0-1_
  6
CONTINUOUS
 62
    1
 10
5200.9376749852636
 20
3675.7257010362332
 11
5200.9376749852636
 21
3707.9825348251647
  0
LINE
  8
_0-1_
  6
CONTINUOUS
 62
    1
 10
5238.5281668967282
 20
3675.7257010362332
 11
5200.9376749852636
 21
3675.7257010362332
  0
LINE
  8
_0-1_
  6
CONTINUOUS
 62
    1
 10
5307.1007534981927
 20
3734.4225324796071
 11
5307.1007534981927
 21
3788.4864082804834
  0
LINE
  8
_0-1_
  6
CONTINUOUS
 62
    1
 10
5340.5950088961927
 20
3788.4864082804834
 11
5307.1007534981927
 21
3788.4864082804834
  0
LINE
  8
_0-1_
  6
CONTINUOUS
 62
    1
 10
5340.5950088961927
 20
3734.4226614991207
 11
5340.5950088961927
 21
3788.4864082804834
  0
LINE
  8
_0-1_
  6
CONTINUOUS
 62
    1
 10
5317.4116170049483
 20
3498.5922896002335
 11
5317.4116170049483
 21
3501.5917106231127
  0
LINE
  8
_0-1_
  6
CONTINUOUS
 62
    1
 10
5317.4116170049483
 20
3501.5917106231127
 11
5330.4599312137025
 21
3501.5917106231127
  0
LINE
  8
_0-1_
  6
CONTINUOUS
 62
    1
 10
5330.4599312137025
 20
3498.5922896002335
 11
5330.4599312137025
 21
3501.5917106231127
  0
LINE
  8
_0-1_
  6
CONTINUOUS
 62
    1
 10
5317.4116170049483
 20
3498.5922896002335
 11
5330.4599312137025
 21
3498.5922896002335
  0
LINE
  8
_0-1_
  6
CONTINUOUS
 62
    1
 10
5317.4116170049483
 20
3499.4492670353425
 11
5330.4599312137025
 21
3499.4492670353425
  0
LINE
  8
_0-1_
  6
CONTINUOUS
 62
    1
 10
5331.4357741093263
 20
3446.9586214953738
 11
5341.4357741093254
 21
3446.9586214953738
  0
LINE
  8
_0-1_
  6
CONTINUOUS
 62
    1
 10
5331.4357741093263
 20
3466.5996250418657
 11
5331.4357741093263
 21
3446.9586214953738
  0
LINE
  8
_0-1_
  6
CONTINUOUS
 62
    1
 10
5341.4357741093254
 20
3491.4217379255651
 11
5341.4357741093254
 21
3446.9586214953738
  0
LINE
  8
_0-1_
  6
CONTINUOUS
 62
    1
 10
5328.6491035084209
 20
3491.4217379255651
 11
5341.4357741093254
 21
3491.4217379255651
  0
LINE
  8
_0-1_
  6
CONTINUOUS
 62
    1
 10
5323.9357741093254
 20
3466.5996250418657
 11
5333.9357741093263
 21
3466.5996250418657
  0
LINE
  8
_0-1_
  6
CONTINUOUS
 62
    1
 10
5333.9357741093263
 20
3491.4217379255651
 11
5333.9357741093263
 21
3466.5996250418657
  0
LINE
  8
_0-1_
  6
CONTINUOUS
 62
    1
 10
5316.4357741093254
 20
3446.9586214953738
 11
5306.4357741093263
 21
3446.9586214953738
  0
LINE
  8
_0-1_
  6
CONTINUOUS
 62
    1
 10
5316.4357741093254
 20
3466.5996250418657
 11
5316.4357741093254
 21
3446.9586214953738
  0
LINE
  8
_0-1_
  6
CONTINUOUS
 62
    1
 10
5306.4357741093263
 20
3491.4217379255651
 11
5306.4357741093263
 21
3446.9586214953738
  0
LINE
  8
_0-1_
  6
CONTINUOUS
 62
    1
 10
5323.9357741093254
 20
3466.5996250418657
 11
5313.9357741093263
 21
3466.5996250418657
  0
LINE
  8
_0-1_
  6
CONTINUOUS
 62
    1
 10
5313.9357741093263
 20
3491.4217379255651
 11
5313.9357741093263
 21
3466.5996250418657
  0
LINE
  8
_0-1_
  6
CONTINUOUS
 62
    1
 10
5319.2224447102308
 20
3491.4217379255651
 11
5306.4357741093263
 21
3491.4217379255651
  0
CIRCLE
  8
_0-1_
  6
CONTINUOUS
 62
    1
 10
7556.9957671041439
 20
3466.5996250418657
 40
20
  0
LINE
  8
_0-1_
  6
CONTINUOUS
 62
    1
 10
7531.6374035351682
 20
3466.5996250418657
 11
7534.6374898402573
 21
3466.5996250418657
  0
LINE
  8
_0-1_
  6
CONTINUOUS
 62
    1
 10
7578.6360514610124
 20
3466.5996250418657
 11
7581.6361377661015
 21
3466.5996250418657
  0
ARC
  8
_0-1_
  6
CONTINUOUS
 62
    1
 10
7556.6367706506353
 20
3466.4217379255651
 40
22
 50
0.4632860026130193
 51
179.53671399738698
  0
ARC
  8
_0-1_
  6
CONTINUOUS
 62
    1
 10
7556.6367706506353
 20
3466.4217379255651
 40
25
 50
0.4076906800374571
 51
179.59230931996254
  0
LINE
  8
_0-1_
  6
CONTINUOUS
 62
    1
 10
7567.610605169767
 20
3498.5922896002335
 11
7567.610605169767
 21
3501.5917106231127
  0
LINE
  8
_0-1_
  6
CONTINUOUS
 62
    1
 10
7567.610605169767
 20
3501.5917106231127
 11
7580.6589193785212
 21
3501.5917106231127
  0
LINE
  8
_0-1_
  6
CONTINUOUS
 62
    1
 10
7580.6589193785212
 20
3498.5922896002335
 11
7580.6589193785212
 21
3501.5917106231127
  0
LINE
  8
_0-1_
  6
CONTINUOUS
 62
    1
 10
7567.610605169767
 20
3498.5922896002335
 11
7580.6589193785212
 21
3498.5922896002335
  0
LINE
  8
_0-1_
  6
CONTINUOUS
 62
    1
 10
7567.610605169767
 20
3499.4492670353425
 11
7580.6589193785212
 21
3499.4492670353425
  0
CIRCLE
  8
_0-1_
  6
CONTINUOUS
 62
    1
 10
7556.6367706506353
 20
3466.5996250418657
 40
15
  0
LINE
  8
_0-1_
  6
CONTINUOUS
 62
    1
 10
7569.4214328750495
 20
3487.8086568751173
 11
7569.4214328750495
 21
3498.5922896002335
  0
LINE
  8
_0-1_
  6
CONTINUOUS
 62
    1
 10
7569.4214328750495
 20
3501.5917106231127
 11
7569.4214328750495
 21
3508.4864082804829
  0
LINE
  8
_0-1_
  6
CONTINUOUS
 62
    1
 10
7578.8480916732397
 20
3508.4864082804829
 11
7578.8480916732397
 21
3501.5917106231127
  0
LINE
  8
_0-1_
  6
CONTINUOUS
 62
    1
 10
7578.8480916732397
 20
3498.5922896002335
 11
7578.8480916732397
 21
3477.8959358683765
  0
LINE
  8
_0-1_
  6
CONTINUOUS
 62
    1
 10
5319.2224447102308
 20
3491.4217379255651
 11
5319.2224447102308
 21
3498.5922896002335
  0
LINE
  8
_0-1_
  6
CONTINUOUS
 62
    1
 10
5319.2224447102308
 20
3501.5917106231127
 11
5319.2224447102308
 21
3508.4864082804829
  0
LINE
  8
_0-1_
  6
CONTINUOUS
 62
    1
 10
5328.6491035084209
 20
3508.4864082804829
 11
5328.6491035084209
 21
3501.5917106231127
  0
LINE
  8
_0-1_
  6
CONTINUOUS
 62
    1
 10
5328.6491035084209
 20
3498.3965443967863
 11
5328.6491035084209
 21
3491.4217379255651
  0
LINE
  8
_0-1_
  6
CONTINUOUS
 62
    1
 10
5226.4357741093254
 20
5199.7583007506319
 11
5323.9357741093254
 21
5199.7583007506319
  0
LINE
  8
_0-1_
  6
CONTINUOUS
 62
    1
 10
5226.4357741093254
 20
5174.7583007506319
 11
5323.9357741093254
 21
5174.7583007506319
  0
ARC
  8
_0-1_
  6
CONTINUOUS
 62
    1
 10
5226.4357741093254
 20
5239.758300750631
 40
65
 50
180
 51
270
  0
LINE
  8
_0-1_
  6
CONTINUOUS
 62
    1
 10
5196.4357741093263
 20
5279.758300750631
 11
5323.9357741093254
 21
5279.758300750631
  0
ARC
  8
_0-1_
  6
CONTINUOUS
 62
    1
 10
5196.4357741093263
 20
5289.758300750631
 40
10
 50
180
 51
270
  0
LINE
  8
_0-1_
  6
CONTINUOUS
 62
    1
 10
5196.8553751938271
 20
5254.758300750631
 11
5323.9357741093254
 21
5254.758300750631
  0
ARC
  8
_0-1_
  6
CONTINUOUS
 62
    1
 10
5226.4357741093254
 20
5239.758300750631
 40
40
 50
170.40593177313951
 51
270
  0
ARC
  8
_0-1_
  6
CONTINUOUS
 62
    1
 10
5196.8553751938271
 20
5244.7583007506319
 40
10
 50
89.999999999999986
 51
170.40593177313957
  0
LINE
  8
_0-1_
  6
CONTINUOUS
 62
    1
 10
5161.4357741093254
 20
5239.758300750631
 11
5161.4357741093254
 21
5524.7583007506319
  0
LINE
  8
_0-1_
  6
CONTINUOUS
 62
    1
 10
5186.4357741093254
 20
5289.758300750631
 11
5186.4357741093254
 21
5524.7583007506319
  0
LINE
  8
_0-0_
  6
CENTER1
 62
    5
 10
5161.4357741093254
 20
5374.7583007506319
 11
5186.4357741093254
 21
5374.7583007506319
  0
LINE
  8
_0-1_
  6
CONTINUOUS
 62
    1
 10
5325.4277623757225
 20
6154.7661159871222
 11
5312.3187335051898
 21
6155.2344075163592
  0
LINE
  8
_0-1_
  6
CONTINUOUS
 62
    1
 10
5312.3187335051898
 20
6155.2344075163592
 11
5289.7169290411266
 21
6155.9091197794196
  0
LINE
  8
_0-1_
  6
CONTINUOUS
 62
    1
 10
5289.7169290411266
 20
6155.9091197794196
 11
5267.1150397177489
 21
6156.2152572500381
  0
LINE
  8
_0-1_
  6
CONTINUOUS
 62
    1
 10
5267.1150397177489
 20
6156.2152572500381
 11
5244.5130118266306
 21
6155.9195447431221
  0
LINE
  8
_0-1_
  6
CONTINUOUS
 62
    1
 10
5244.5130118266306
 20
6155.9195447431221
 11
5221.9107916593457
 21
6154.7887070735824
  0
LINE
  8
_0-1_
  6
CONTINUOUS
 62
    1
 10
5221.9107916593457
 20
6154.7887070735824
 11
5199.3083255074671
 21
6152.5894690563291
  0
LINE
  8
_0-1_
  6
CONTINUOUS
 62
    1
 10
5199.3083255074671
 20
6152.5894690563291
 11
5186.1987612653238
 21
6150.7324474137649
  0
LINE
  8
_0-1_
  6
CONTINUOUS
 62
    1
 10
5186.1987612653238
 20
6150.7324474137649
 11
5179.0457120064029
 21
6149.515749042177
  0
LINE
  8
_0-1_
  6
CONTINUOUS
 62
    1
 10
5179.0457120064029
 20
6149.515749042177
 11
5166.7693542658926
 21
6147.024288811097
  0
LINE
  8
_0-1_
  6
CONTINUOUS
 62
    1
 10
5166.7693542658926
 20
6147.024288811097
 11
5154.6500193070824
 21
6143.9506610250064
  0
LINE
  8
_0-1_
  6
CONTINUOUS
 62
    1
 10
5154.6500193070824
 20
6143.9506610250064
 11
5142.7871510336981
 21
6140.1974150650321
  0
LINE
  8
_0-1_
  6
CONTINUOUS
 62
    1
 10
5142.7871510336981
 20
6140.1974150650321
 11
5131.2801933494666
 21
6135.6671003123065
  0
LINE
  8
_0-1_
  6
CONTINUOUS
 62
    1
 10
5131.2801933494666
 20
6135.6671003123065
 11
5120.2285901581135
 21
6130.2622661479572
  0
LINE
  8
_0-1_
  6
CONTINUOUS
 62
    1
 10
5120.2285901581135
 20
6130.2622661479572
 11
5114.0664898049163
 21
6126.6883569269621
  0
LINE
  8
_0-1_
  6
CONTINUOUS
 62
    1
 10
5114.0664898049163
 20
6126.6883569269621
 11
5108.1135553880995
 21
6122.7800908499939
  0
LINE
  8
_0-1_
  6
CONTINUOUS
 62
    1
 10
5108.1135553880995
 20
6122.7800908499939
 11
5098.330069362517
 21
6115.2994293481297
  0
LINE
  8
_0-1_
  6
CONTINUOUS
 62
    1
 10
5098.330069362517
 20
6115.2994293481297
 11
5089.1505128869258
 21
6106.982647854069
  0
LINE
  8
_0-1_
  6
CONTINUOUS
 62
    1
 10
5089.1505128869258
 20
6106.982647854069
 11
5080.570338332649
 21
6097.9500538746579
  0
LINE
  8
_0-1_
  6
CONTINUOUS
 62
    1
 10
5080.570338332649
 20
6097.9500538746579
 11
5072.5849980710136
 21
6088.3219549167461
  0
LINE
  8
_0-1_
  6
CONTINUOUS
 62
    1
 10
5072.5849980710136
 20
6088.3219549167461
 11
5065.1899444733444
 21
6078.2186584871806
  0
LINE
  8
_0-1_
  6
CONTINUOUS
 62
    1
 10
5065.1899444733444
 20
6078.2186584871806
 11
5061.1694907339506
 21
6072.1884184902092
  0
LINE
  8
_0-1_
  6
CONTINUOUS
 62
    1
 10
5061.1694907339506
 20
6072.1884184902092
 11
5057.093780524754
 21
6065.6439415732975
  0
LINE
  8
_0-1_
  6
CONTINUOUS
 62
    1
 10
5057.093780524754
 20
6065.6439415732975
 11
5050.5650088891189
 21
6054.1237463583666
  0
LINE
  8
_0-1_
  6
CONTINUOUS
 62
    1
 10
5050.5650088891189
 20
6054.1237463583666
 11
5044.6271691888751
 21
6042.3341672168253
  0
LINE
  8
_0-1_
  6
CONTINUOUS
 62
    1
 10
5044.6271691888751
 20
6042.3341672168253
 11
5039.2339283316105
 21
6030.3102365620998
  0
LINE
  8
_0-1_
  6
CONTINUOUS
 62
    1
 10
5039.2339283316105
 20
6030.3102365620998
 11
5034.3389532249093
 21
6018.0869868076143
  0
LINE
  8
_0-1_
  6
CONTINUOUS
 62
    1
 10
5034.3389532249093
 20
6018.0869868076143
 11
5029.8959107763558
 21
6005.6994503667938
  0
LINE
  8
_0-1_
  6
CONTINUOUS
 62
    1
 10
5029.8959107763558
 20
6005.6994503667938
 11
5027.5077640524269
 21
5998.4532076640153
  0
LINE
  8
_0-1_
  6
CONTINUOUS
 62
    1
 10
5027.5077640524269
 20
5998.4532076640153
 11
5024.8527437872071
 21
5989.8554079840569
  0
LINE
  8
_0-1_
  6
CONTINUOUS
 62
    1
 10
5024.8527437872071
 20
5989.8554079840569
 11
5020.6429890184463
 21
5974.9258036883612
  0
LINE
  8
_0-1_
  6
CONTINUOUS
 62
    1
 10
5020.6429890184463
 20
5974.9258036883612
 11
5016.8252735302158
 21
5959.8834346430995
  0
LINE
  8
_0-1_
  6
CONTINUOUS
 62
    1
 10
5016.8252735302158
 20
5959.8834346430995
 11
5013.3139992263341
 21
5944.7529219726302
  0
LINE
  8
_0-1_
  6
CONTINUOUS
 62
    1
 10
5013.3139992263341
 20
5944.7529219726302
 11
5010.0235680106107
 21
5929.5588868013165
  0
LINE
  8
_0-1_
  6
CONTINUOUS
 62
    1
 10
5010.0235680106107
 20
5929.5588868013165
 11
5006.8683817868614
 21
5914.3259502535147
  0
LINE
  8
_0-1_
  6
CONTINUOUS
 62
    1
 10
5006.8683817868614
 20
5914.3259502535147
 11
5005.0666129314113
 21
5905.4827244483786
  0
LINE
  8
_0-1_
  6
CONTINUOUS
 62
    1
 10
5322.4437858429292
 20
6154.7661159871222
 11
5335.552814713461
 21
6155.2344075163592
  0
LINE
  8
_0-1_
  6
CONTINUOUS
 62
    1
 10
5335.552814713461
 20
6155.2344075163592
 11
5358.1546191775242
 21
6155.9091197794196
  0
LINE
  8
_0-1_
  6
CONTINUOUS
 62
    1
 10
5358.1546191775242
 20
6155.9091197794196
 11
5380.7565085009028
 21
6156.2152572500381
  0
LINE
  8
_0-1_
  6
CONTINUOUS
 62
    1
 10
5380.7565085009028
 20
6156.2152572500381
 11
5403.3585363920211
 21
6155.9195447431221
  0
LINE
  8
_0-1_
  6
CONTINUOUS
 62
    1
 10
5403.3585363920211
 20
6155.9195447431221
 11
5425.960756559306
 21
6154.7887070735824
  0
LINE
  8
_0-1_
  6
CONTINUOUS
 62
    1
 10
5425.960756559306
 20
6154.7887070735824
 11
5448.5632227111846
 21
6152.5894690563291
  0
LINE
  8
_0-1_
  6
CONTINUOUS
 62
    1
 10
5448.5632227111846
 20
6152.5894690563291
 11
5461.6727869533279
 21
6150.7324474137649
  0
LINE
  8
_0-1_
  6
CONTINUOUS
 62
    1
 10
5461.6727869533279
 20
6150.7324474137649
 11
5468.8258362122479
 21
6149.515749042177
  0
LINE
  8
_0-1_
  6
CONTINUOUS
 62
    1
 10
5468.8258362122479
 20
6149.515749042177
 11
5481.1021939527591
 21
6147.024288811097
  0
LINE
  8
_0-1_
  6
CONTINUOUS
 62
    1
 10
5481.1021939527591
 20
6147.024288811097
 11
5493.2215289115693
 21
6143.9506610250064
  0
LINE
  8
_0-1_
  6
CONTINUOUS
 62
    1
 10
5493.2215289115693
 20
6143.9506610250064
 11
5505.0843971849536
 21
6140.1974150650321
  0
LINE
  8
_0-1_
  6
CONTINUOUS
 62
    1
 10
5505.0843971849536
 20
6140.1974150650321
 11
5516.5913548691851
 21
6135.6671003123065
  0
LINE
  8
_0-1_
  6
CONTINUOUS
 62
    1
 10
5516.5913548691851
 20
6135.6671003123065
 11
5527.6429580605381
 21
6130.2622661479572
  0
LINE
  8
_0-1_
  6
CONTINUOUS
 62
    1
 10
5527.6429580605381
 20
6130.2622661479572
 11
5533.8050584137345
 21
6126.6883569269621
  0
LINE
  8
_0-1_
  6
CONTINUOUS
 62
    1
 10
5533.8050584137345
 20
6126.6883569269621
 11
5539.7579928305522
 21
6122.7800908499939
  0
LINE
  8
_0-1_
  6
CONTINUOUS
 62
    1
 10
5539.7579928305522
 20
6122.7800908499939
 11
5549.5414788561347
 21
6115.2994293481297
  0
LINE
  8
_0-1_
  6
CONTINUOUS
 62
    1
 10
5549.5414788561347
 20
6115.2994293481297
 11
5558.7210353317259
 21
6106.982647854069
  0
LINE
  8
_0-1_
  6
CONTINUOUS
 62
    1
 10
5558.7210353317259
 20
6106.982647854069
 11
5567.3012098860027
 21
6097.9500538746579
  0
LINE
  8
_0-1_
  6
CONTINUOUS
 62
    1
 10
5567.3012098860027
 20
6097.9500538746579
 11
5575.2865501476381
 21
6088.3219549167461
  0
LINE
  8
_0-1_
  6
CONTINUOUS
 62
    1
 10
5575.2865501476381
 20
6088.3219549167461
 11
5582.6816037453073
 21
6078.2186584871806
  0
LINE
  8
_0-1_
  6
CONTINUOUS
 62
    1
 10
5582.6816037453073
 20
6078.2186584871806
 11
5586.7020574847011
 21
6072.1884184902092
  0
LINE
  8
_0-1_
  6
CONTINUOUS
 62
    1
 10
5586.7020574847011
 20
6072.1884184902092
 11
5590.7777676938977
 21
6065.6439415732975
  0
LINE
  8
_0-1_
  6
CONTINUOUS
 62
    1
 10
5590.7777676938977
 20
6065.6439415732975
 11
5597.3065393295328
 21
6054.1237463583666
  0
LINE
  8
_0-1_
  6
CONTINUOUS
 62
    1
 10
5597.3065393295328
 20
6054.1237463583666
 11
5603.2443790297766
 21
6042.3341672168253
  0
LINE
  8
_0-1_
  6
CONTINUOUS
 62
    1
 10
5603.2443790297766
 20
6042.3341672168253
 11
5608.6376198870412
 21
6030.3102365620998
  0
LINE
  8
_0-1_
  6
CONTINUOUS
 62
    1
 10
5608.6376198870412
 20
6030.3102365620998
 11
5613.5325949937424
 21
6018.0869868076143
  0
LINE
  8
_0-1_
  6
CONTINUOUS
 62
    1
 10
5613.5325949937424
 20
6018.0869868076143
 11
5617.9756374422959
 21
6005.6994503667938
  0
LINE
  8
_0-1_
  6
CONTINUOUS
 62
    1
 10
5617.9756374422959
 20
6005.6994503667938
 11
5620.3637841662239
 21
5998.4532076640153
  0
LINE
  8
_0-1_
  6
CONTINUOUS
 62
    1
 10
5620.3637841662239
 20
5998.4532076640153
 11
5623.0188044314446
 21
5989.8554079840569
  0
LINE
  8
_0-1_
  6
CONTINUOUS
 62
    1
 10
5623.0188044314446
 20
5989.8554079840569
 11
5627.2285592002054
 21
5974.9258036883612
  0
LINE
  8
_0-1_
  6
CONTINUOUS
 62
    1
 10
5627.2285592002054
 20
5974.9258036883612
 11
5631.046274688435
 21
5959.8834346430995
  0
LINE
  8
_0-1_
  6
CONTINUOUS
 62
    1
 10
5631.046274688435
 20
5959.8834346430995
 11
5634.5575489923176
 21
5944.7529219726302
  0
LINE
  8
_0-1_
  6
CONTINUOUS
 62
    1
 10
5634.5575489923176
 20
5944.7529219726302
 11
5637.847980208041
 21
5929.5588868013165
  0
LINE
  8
_0-1_
  6
CONTINUOUS
 62
    1
 10
5637.847980208041
 20
5929.5588868013165
 11
5641.0031664317903
 21
5914.3259502535147
  0
LINE
  8
_0-1_
  6
CONTINUOUS
 62
    1
 10
5641.0031664317903
 20
5914.3259502535147
 11
5642.8049352872404
 21
5905.4827244483786
  0
LINE
  8
_0-1_
  6
CONTINUOUS
 62
    1
 10
5007.5790367069012
 20
5534.5252205426414
 11
4998.9938290411164
 21
5902.7622067101429
  0
LINE
  8
_0-1_
  6
CONTINUOUS
 62
    1
 10
5640.2925115117505
 20
5534.5252205426414
 11
5648.8777191775353
 21
5902.7622067101429
  0
LINE
  8
_0-0_
  6
CENTER1
 62
    5
 10
5323.9357741093254
 20
4361.7381335297368
 11
5323.9357741093254
 21
3346.5412394642904
  0
LINE
  8
_0-0_
  6
CENTER1
 62
    5
 10
8096.9355438785269
 20
4382.7962435288246
 11
8096.9355438785269
 21
3340.4513592499156
  0
LINE
  8
_0-0_
  6
CENTER1
 62
    5
 10
5323.9357741093254
 20
5064.5712197967559
 11
5323.9357741093254
 21
6590.6112908034575
  0
LINE
  8
_0-1_
  6
DASHED2
 62
    4
 10
5062.3134953024119
 20
5534.7583007506319
 11
5062.3134953024119
 21
5906.5468595346474
  0
LINE
  8
_0-1_
  6
DASHED2
 62
    4
 10
5585.5580529162398
 20
5534.7583007506319
 11
5585.5580529162398
 21
5906.5468595346474
  0
ARC
  8
_0-1_
  6
DASHED2
 62
    4
 10
5595.5580529162398
 20
5534.7583007506319
 40
10
 50
180
 51
270
  0
LINE
  8
_0-1_
  6
DASHED2
 62
    4
 10
5136.4009621254854
 20
5843.2131343983256
 11
5141.0123807923719
 21
5838.8067579373183
  0
LINE
  8
_0-1_
  6
DASHED2
 62
    4
 10
5131.8919866357464
 20
5847.5328273325022
 11
5136.4009621254854
 21
5843.2131343983256
  0
LINE
  8
_0-1_
  6
DASHED2
 62
    4
 10
5127.4821144622911
 20
5851.754471727184
 11
5131.8919866357464
 21
5847.5328273325022
  0
LINE
  8
_0-1_
  6
DASHED2
 62
    4
 10
5123.1681117066373
 20
5855.8678254153765
 11
5127.4821144622911
 21
5851.754471727184
  0
LINE
  8
_0-1_
  6
DASHED2
 62
    4
 10
5118.946847428937
 20
5859.8637247658016
 11
5123.1681117066373
 21
5855.8678254153765
  0
LINE
  8
_0-1_
  6
DASHED2
 62
    4
 10
5114.8152906442365
 20
5863.7340403729386
 11
5118.946847428937
 21
5859.8637247658016
  0
LINE
  8
_0-1_
  6
DASHED2
 62
    4
 10
5110.7705073187217
 20
5867.4716327470705
 11
5114.8152906442365
 21
5863.7340403729386
  0
LINE
  8
_0-1_
  6
DASHED2
 62
    4
 10
5106.8096573659832
 20
5871.0703080043268
 11
5110.7705073187217
 21
5867.4716327470705
  0
LINE
  8
_0-1_
  6
DASHED2
 62
    4
 10
5102.9299916432619
 20
5874.5247735567291
 11
5106.8096573659832
 21
5871.0703080043268
  0
LINE
  8
_0-1_
  6
DASHED2
 62
    4
 10
5099.1288489477101
 20
5877.8305938022359
 11
5102.9299916432619
 21
5874.5247735567291
  0
LINE
  8
_0-1_
  6
DASHED2
 62
    4
 10
5095.4036530126359
 20
5880.9841458147839
 11
5099.1288489477101
 21
5877.8305938022359
  0
LINE
  8
_0-1_
  6
DASHED2
 62
    4
 10
5091.7519095037715
 20
5883.9825750343371
 11
5095.4036530126359
 21
5880.9841458147839
  0
LINE
  8
_0-1_
  6
DASHED2
 62
    4
 10
5088.1712030155149
 20
5886.8237509569262
 11
5091.7519095037715
 21
5883.9825750343371
  0
LINE
  8
_0-1_
  6
DASHED2
 62
    4
 10
5084.6591940671906
 20
5889.5062228246961
 11
5088.1712030155149
 21
5886.8237509569262
  0
LINE
  8
_0-1_
  6
DASHED2
 62
    4
 10
5081.2136160993059
 20
5892.029175315949
 11
5084.6591940671906
 21
5889.5062228246961
  0
LINE
  8
_0-1_
  6
DASHED2
 62
    4
 10
5077.8322724697955
 20
5894.3923842351887
 11
5081.2136160993059
 21
5892.029175315949
  0
LINE
  8
_0-1_
  6
DASHED2
 62
    4
 10
5074.5130334502901
 20
5896.5961722031643
 11
5077.8322724697955
 21
5894.3923842351887
  0
LINE
  8
_0-1_
  6
DASHED2
 62
    4
 10
5071.2538332223585
 20
5898.6413643469177
 11
5074.5130334502901
 21
5896.5961722031643
  0
LINE
  8
_0-1_
  6
DASHED2
 62
    4
 10
5068.0526668737666
 20
5900.5292439898212
 11
5071.2538332223585
 21
5898.6413643469177
  0
LINE
  8
_0-1_
  6
DASHED2
 62
    4
 10
5064.9075873947322
 20
5902.2615083416313
 11
5068.0526668737666
 21
5900.5292439898212
  0
LINE
  8
_0-1_
  6
DASHED2
 62
    4
 10
5061.8167026741812
 20
5903.8402241885242
 11
5064.9075873947322
 21
5902.2615083416313
  0
LINE
  8
_0-1_
  6
DASHED2
 62
    4
 10
5058.7781724959959
 20
5905.2677835831437
 11
5061.8167026741812
 21
5903.8402241885242
  0
LINE
  8
_0-1_
  6
DASHED2
 62
    4
 10
5055.7902055352752
 20
5906.5468595346474
 11
5058.7781724959959
 21
5905.2677835831437
  0
LINE
  8
_0-1_
  6
DASHED2
 62
    4
 10
5052.851056354586
 20
5907.6803616987463
 11
5055.7902055352752
 21
5906.5468595346474
  0
LINE
  8
_0-1_
  6
DASHED2
 62
    4
 10
5049.9590224002186
 20
5908.6713920677557
 11
5052.851056354586
 21
5907.6803616987463
  0
LINE
  8
_0-1_
  6
DASHED2
 62
    4
 10
5047.1124409984413
 20
5909.5232006606302
 11
5049.9590224002186
 21
5908.6713920677557
  0
LINE
  8
_0-1_
  6
DASHED2
 62
    4
 10
5044.3096863517521
 20
5910.2391412130191
 11
5047.1124409984413
 21
5909.5232006606302
  0
LINE
  8
_0-1_
  6
DASHED2
 62
    4
 10
5041.5491665351401
 20
5910.8226268673025
 11
5044.3096863517521
 21
5910.2391412130191
  0
LINE
  8
_0-1_
  6
DASHED2
 62
    4
 10
5038.8293204923266
 20
5911.2770858626354
 11
5041.5491665351401
 21
5910.8226268673025
  0
LINE
  8
_0-1_
  6
DASHED2
 62
    4
 10
5036.1486150320343
 20
5911.6059172250007
 11
5038.8293204923266
 21
5911.2770858626354
  0
LINE
  8
_0-1_
  6
DASHED2
 62
    4
 10
5033.5055418242337
 20
5911.812446457242
 11
5036.1486150320343
 21
5911.6059172250007
  0
LINE
  8
_0-1_
  6
DASHED2
 62
    4
 10
5030.8986143963994
 20
5911.8998812291156
 11
5033.5055418242337
 21
5911.812446457242
  0
LINE
  8
_0-1_
  6
DASHED2
 62
    4
 10
5028.3263651297611
 20
5911.8712670673331
 11
5030.8986143963994
 21
5911.8998812291156
  0
LINE
  8
_0-1_
  6
DASHED2
 62
    4
 10
5025.7873422555631
 20
5911.729443045605
 11
5028.3263651297611
 21
5911.8712670673331
  0
LINE
  8
_0-1_
  6
DASHED2
 62
    4
 10
5023.2801068513172
 20
5911.4769974746832
 11
5025.7873422555631
 21
5911.729443045605
  0
LINE
  8
_0-1_
  6
DASHED2
 62
    4
 10
5020.8032298370508
 20
5911.1162235924103
 11
5023.2801068513172
 21
5911.4769974746832
  0
LINE
  8
_0-1_
  6
DASHED2
 62
    4
 10
5018.3552889715738
 20
5910.6490752537593
 11
5020.8032298370508
 21
5911.1162235924103
  0
LINE
  8
_0-1_
  6
DASHED2
 62
    4
 10
5015.9348658487188
 20
5910.0771226208799
 11
5018.3552889715738
 21
5910.6490752537593
  0
LINE
  8
_0-1_
  6
DASHED2
 62
    4
 10
5013.5405428936083
 20
5909.4015078531411
 11
5015.9348658487188
 21
5910.0771226208799
  0
LINE
  8
_0-1_
  6
DASHED2
 62
    4
 10
5011.1709003588985
 20
5908.6229007971788
 11
5013.5405428936083
 21
5909.4015078531411
  0
LINE
  8
_0-1_
  6
DASHED2
 62
    4
 10
5008.8245133210403
 20
5907.741454676936
 11
5011.1709003588985
 21
5908.6229007971788
  0
LINE
  8
_0-1_
  6
DASHED2
 62
    4
 10
5006.4999486765328
 20
5906.7567617837112
 11
5008.8245133210403
 21
5907.741454676936
  0
LINE
  8
_0-1_
  6
DASHED2
 62
    4
 10
5004.1957621381753
 20
5905.6678091661988
 11
5006.4999486765328
 21
5906.7567617837112
  0
LINE
  8
_0-1_
  6
DASHED2
 62
    4
 10
5001.9104952313182
 20
5904.4729343205363
 11
5004.1957621381753
 21
5905.6678091661988
  0
LINE
  8
_0-1_
  6
DASHED2
 62
    4
 10
4999.6426722901306
 20
5903.1697808803474
 11
5001.9104952313182
 21
5904.4729343205363
  0
LINE
  8
_0-1_
  6
DASHED2
 62
    4
 10
4997.3907974538361
 20
5901.7552543067868
 11
4999.6426722901306
 21
5903.1697808803474
  0
LINE
  8
_0-1_
  6
DASHED2
 62
    4
 10
5511.4705860931663
 20
5843.2131343983256
 11
5506.8591674262798
 21
5838.8067579373183
  0
LINE
  8
_0-1_
  6
DASHED2
 62
    4
 10
5515.9795615829053
 20
5847.5328273325022
 11
5511.4705860931663
 21
5843.2131343983256
  0
LINE
  8
_0-1_
  6
DASHED2
 62
    4
 10
5520.3894337563606
 20
5851.754471727184
 11
5515.9795615829053
 21
5847.5328273325022
  0
LINE
  8
_0-1_
  6
DASHED2
 62
    4
 10
5524.7034365120144
 20
5855.8678254153765
 11
5520.3894337563606
 21
5851.754471727184
  0
LINE
  8
_0-1_
  6
DASHED2
 62
    4
 10
5528.9247007897147
 20
5859.8637247658016
 11
5524.7034365120144
 21
5855.8678254153765
  0
LINE
  8
_0-1_
  6
DASHED2
 62
    4
 10
5533.0562575744152
 20
5863.7340403729386
 11
5528.9247007897147
 21
5859.8637247658016
  0
LINE
  8
_0-1_
  6
DASHED2
 62
    4
 10
5537.10104089993
 20
5867.4716327470705
 11
5533.0562575744152
 21
5863.7340403729386
  0
LINE
  8
_0-1_
  6
DASHED2
 62
    4
 10
5541.0618908526685
 20
5871.0703080043268
 11
5537.10104089993
 21
5867.4716327470705
  0
LINE
  8
_0-1_
  6
DASHED2
 62
    4
 10
5544.9415565753898
 20
5874.5247735567291
 11
5541.0618908526685
 21
5871.0703080043268
  0
LINE
  8
_0-1_
  6
DASHED2
 62
    4
 10
5548.7426992709416
 20
5877.8305938022359
 11
5544.9415565753898
 21
5874.5247735567291
  0
LINE
  8
_0-1_
  6
DASHED2
 62
    4
 10
5552.4678952060158
 20
5880.9841458147839
 11
5548.7426992709416
 21
5877.8305938022359
  0
LINE
  8
_0-1_
  6
DASHED2
 62
    4
 10
5556.1196387148793
 20
5883.9825750343371
 11
5552.4678952060158
 21
5880.9841458147839
  0
LINE
  8
_0-1_
  6
DASHED2
 62
    4
 10
5559.7003452031367
 20
5886.8237509569262
 11
5556.1196387148793
 21
5883.9825750343371
  0
LINE
  8
_0-1_
  6
DASHED2
 62
    4
 10
5563.2123541514611
 20
5889.5062228246961
 11
5559.7003452031367
 21
5886.8237509569262
  0
LINE
  8
_0-1_
  6
DASHED2
 62
    4
 10
5566.6579321193458
 20
5892.029175315949
 11
5563.2123541514611
 21
5889.5062228246961
  0
LINE
  8
_0-1_
  6
DASHED2
 62
    4
 10
5570.0392757488562
 20
5894.3923842351887
 11
5566.6579321193458
 21
5892.029175315949
  0
LINE
  8
_0-1_
  6
DASHED2
 62
    4
 10
5573.3585147683616
 20
5896.5961722031643
 11
5570.0392757488562
 21
5894.3923842351887
  0
LINE
  8
_0-1_
  6
DASHED2
 62
    4
 10
5576.6177149962932
 20
5898.6413643469177
 11
5573.3585147683616
 21
5896.5961722031643
  0
LINE
  8
_0-1_
  6
DASHED2
 62
    4
 10
5579.8188813448851
 20
5900.5292439898212
 11
5576.6177149962932
 21
5898.6413643469177
  0
LINE
  8
_0-1_
  6
DASHED2
 62
    4
 10
5582.9639608239195
 20
5902.2615083416313
 11
5579.8188813448851
 21
5900.5292439898212
  0
LINE
  8
_0-1_
  6
DASHED2
 62
    4
 10
5586.0548455444705
 20
5903.8402241885242
 11
5582.9639608239195
 21
5902.2615083416313
  0
LINE
  8
_0-1_
  6
DASHED2
 62
    4
 10
5589.0933757226558
 20
5905.2677835831437
 11
5586.0548455444705
 21
5903.8402241885242
  0
LINE
  8
_0-1_
  6
DASHED2
 62
    4
 10
5592.0813426833756
 20
5906.5468595346474
 11
5589.0933757226558
 21
5905.2677835831437
  0
LINE
  8
_0-1_
  6
DASHED2
 62
    4
 10
5595.0204918640648
 20
5907.6803616987463
 11
5592.0813426833756
 21
5906.5468595346474
  0
LINE
  8
_0-1_
  6
DASHED2
 62
    4
 10
5597.9125258184322
 20
5908.6713920677557
 11
5595.0204918640648
 21
5907.6803616987463
  0
LINE
  8
_0-1_
  6
DASHED2
 62
    4
 10
5600.7591072202104
 20
5909.5232006606302
 11
5597.9125258184322
 21
5908.6713920677557
  0
LINE
  8
_0-1_
  6
DASHED2
 62
    4
 10
5603.5618618668996
 20
5910.2391412130191
 11
5600.7591072202104
 21
5909.5232006606302
  0
LINE
  8
_0-1_
  6
DASHED2
 62
    4
 10
5606.3223816835116
 20
5910.8226268673025
 11
5603.5618618668996
 21
5910.2391412130191
  0
LINE
  8
_0-1_
  6
DASHED2
 62
    4
 10
5609.0422277263251
 20
5911.2770858626354
 11
5606.3223816835116
 21
5910.8226268673025
  0
LINE
  8
_0-1_
  6
DASHED2
 62
    4
 10
5611.7229331866174
 20
5911.6059172250007
 11
5609.0422277263251
 21
5911.2770858626354
  0
LINE
  8
_0-1_
  6
DASHED2
 62
    4
 10
5614.3660063944171
 20
5911.812446457242
 11
5611.7229331866174
 21
5911.6059172250007
  0
LINE
  8
_0-1_
  6
DASHED2
 62
    4
 10
5616.9729338222523
 20
5911.8998812291156
 11
5614.3660063944171
 21
5911.812446457242
  0
LINE
  8
_0-1_
  6
DASHED2
 62
    4
 10
5619.5451830888906
 20
5911.8712670673331
 11
5616.9729338222523
 21
5911.8998812291156
  0
LINE
  8
_0-1_
  6
DASHED2
 62
    4
 10
5622.0842059630886
 20
5911.729443045605
 11
5619.5451830888906
 21
5911.8712670673331
  0
LINE
  8
_0-1_
  6
DASHED2
 62
    4
 10
5624.5914413673345
 20
5911.4769974746832
 11
5622.0842059630886
 21
5911.729443045605
  0
LINE
  8
_0-1_
  6
DASHED2
 62
    4
 10
5627.0683183816
 20
5911.1162235924103
 11
5624.5914413673345
 21
5911.4769974746832
  0
LINE
  8
_0-1_
  6
DASHED2
 62
    4
 10
5629.516259247077
 20
5910.6490752537593
 11
5627.0683183816
 21
5911.1162235924103
  0
LINE
  8
_0-1_
  6
DASHED2
 62
    4
 10
5631.9366823699329
 20
5910.0771226208799
 11
5629.516259247077
 21
5910.6490752537593
  0
LINE
  8
_0-1_
  6
DASHED2
 62
    4
 10
5634.3310053250434
 20
5909.4015078531411
 11
5631.9366823699329
 21
5910.0771226208799
  0
LINE
  8
_0-1_
  6
DASHED2
 62
    4
 10
5636.7006478597532
 20
5908.6229007971788
 11
5634.3310053250434
 21
5909.4015078531411
  0
LINE
  8
_0-1_
  6
DASHED2
 62
    4
 10
5639.0470348976105
 20
5907.741454676936
 11
5636.7006478597532
 21
5908.6229007971788
  0
LINE
  8
_0-1_
  6
DASHED2
 62
    4
 10
5641.3715995421189
 20
5906.7567617837112
 11
5639.0470348976105
 21
5907.741454676936
  0
LINE
  8
_0-1_
  6
DASHED2
 62
    4
 10
5643.6757860804764
 20
5905.6678091661988
 11
5641.3715995421189
 21
5906.7567617837112
  0
LINE
  8
_0-1_
  6
DASHED2
 62
    4
 10
5645.9610529873335
 20
5904.4729343205363
 11
5643.6757860804764
 21
5905.6678091661988
  0
LINE
  8
_0-1_
  6
DASHED2
 62
    4
 10
5648.2288759285211
 20
5903.1697808803474
 11
5645.9610529873335
 21
5904.4729343205363
  0
LINE
  8
_0-1_
  6
DASHED2
 62
    4
 10
5650.4807507648156
 20
5901.7552543067868
 11
5648.2288759285211
 21
5903.1697808803474
  0
ARC
  8
_0-1_
  6
DASHED2
 62
    4
 10
5052.3134953024119
 20
5534.7583007506319
 40
10
 50
270
 51
0
  0
ENDSEC
  0
EOF
