  0
SECTION
  2
HEADER
  9
$ACADVER
  1
AC1018
  9
$ACADMAINTVER
 70
     0
  9
$DWGCODEPAGE
  3
ASCII
  9
$INSBASE
 10
0.0
 20
0.0
 30
0.0
  9
$EXTMIN
 10
1.000000000000000E+20
 20
1.000000000000000E+20
 30
1.000000000000000E+20
  9
$EXTMAX
 10
-1.000000000000000E+20
 20
-1.000000000000000E+20
 30
-1.000000000000000E+20
  9
$LIMMIN
 10
0.0
 20
0.0
  9
$LIMMAX
 10
12.0
 20
9.0
  9
$ORTHOMODE
 70
     0
  9
$REGENMODE
 70
     1
  9
$FILLMODE
 70
     1
  9
$QTEXTMODE
 70
     0
  9
$MIRRTEXT
 70
     1
  9
$LTSCALE
 40
1.0
  9
$ATTMODE
 70
     1
  9
$TEXTSIZE
 40
0.2
  9
$TRACEWID
 40
0.05
  9
$TEXTSTYLE
  7
Standard
  9
$CLAYER
  8
0
  9
$CELTYPE
  6
ByLayer
  9
$CECOLOR
 62
   256
  9
$CELTSCALE
 40
1.0
  9
$DISPSILH
 70
     0
  9
$DIMSCALE
 40
1.0
  9
$DIMASZ
 40
0.18
  9
$DIMEXO
 40
0.0625
  9
$DIMDLI
 40
0.38
  9
$DIMRND
 40
0.0
  9
$DIMDLE
 40
0.0
  9
$DIMEXE
 40
0.18
  9
$DIMTP
 40
0.0
  9
$DIMTM
 40
0.0
  9
$DIMTXT
 40
0.18
  9
$DIMCEN
 40
0.09
  9
$DIMTSZ
 40
0.0
  9
$DIMTOL
 70
     0
  9
$DIMLIM
 70
     0
  9
$DIMTIH
 70
     1
  9
$DIMTOH
 70
     1
  9
$DIMSE1
 70
     0
  9
$DIMSE2
 70
     0
  9
$DIMTAD
 70
     0
  9
$DIMZIN
 70
     0
  9
$DIMBLK
  1

  9
$DIMASO
 70
     1
  9
$DIMSHO
 70
     1
  9
$DIMPOST
  1

  9
$DIMAPOST
  1

  9
$DIMALT
 70
     0
  9
$DIMALTD
 70
     2
  9
$DIMALTF
 40
25.4
  9
$DIMLFAC
 40
1.0
  9
$DIMTOFL
 70
     0
  9
$DIMTVP
 40
0.0
  9
$DIMTIX
 70
     0
  9
$DIMSOXD
 70
     0
  9
$DIMSAH
 70
     0
  9
$DIMBLK1
  1

  9
$DIMBLK2
  1

  9
$DIMSTYLE
  2
Standard
  9
$DIMCLRD
 70
     0
  9
$DIMCLRE
 70
     0
  9
$DIMCLRT
 70
     0
  9
$DIMTFAC
 40
1.0
  9
$DIMGAP
 40
0.09
  9
$DIMJUST
 70
     0
  9
$DIMSD1
 70
     0
  9
$DIMSD2
 70
     0
  9
$DIMTOLJ
 70
     1
  9
$DIMTZIN
 70
     0
  9
$DIMALTZ
 70
     0
  9
$DIMALTTZ
 70
     0
  9
$DIMUPT
 70
     0
  9
$DIMDEC
 70
     4
  9
$DIMTDEC
 70
     4
  9
$DIMALTU
 70
     2
  9
$DIMALTTD
 70
     2
  9
$DIMTXSTY
  7
Standard
  9
$DIMAUNIT
 70
     0
  9
$DIMADEC
 70
     0
  9
$DIMALTRND
 40
0.0
  9
$DIMAZIN
 70
     0
  9
$DIMDSEP
 70
    46
  9
$DIMATFIT
 70
     3
  9
$DIMFRAC
 70
     0
  9
$DIMLDRBLK
  1

  9
$DIMLUNIT
 70
     2
  9
$DIMLWD
 70
    -2
  9
$DIMLWE
 70
    -2
  9
$DIMTMOVE
 70
     0
  9
$LUNITS
 70
     2
  9
$LUPREC
 70
     4
  9
$SKETCHINC
 40
0.1
  9
$FILLETRAD
 40
0.5
  9
$AUNITS
 70
     0
  9
$AUPREC
 70
     0
  9
$MENU
  1
.
  9
$ELEVATION
 40
0.0
  9
$PELEVATION
 40
0.0
  9
$THICKNESS
 40
0.0
  9
$LIMCHECK
 70
     0
  9
$CHAMFERA
 40
0.5
  9
$CHAMFERB
 40
0.5
  9
$CHAMFERC
 40
1.0
  9
$CHAMFERD
 40
0.0
  9
$SKPOLY
 70
     0
  9
$TDCREATE
 40
2456828.725041644
  9
$TDUCREATE
 40
2456828.350041644
  9
$TDUPDATE
 40
2456828.725041655
  9
$TDUUPDATE
 40
2456828.350041655
  9
$TDINDWG
 40
0.0000000116
  9
$TDUSRTIMER
 40
0.0000000116
  9
$USRTIMER
 70
     1
  9
$ANGBASE
 50
0.0
  9
$ANGDIR
 70
     0
  9
$PDMODE
 70
     0
  9
$PDSIZE
 40
0.0
  9
$PLINEWID
 40
0.0
  9
$SPLFRAME
 70
     0
  9
$SPLINETYPE
 70
     6
  9
$SPLINESEGS
 70
     8
  9
$HANDSEED
  5
1FA
  9
$SURFTAB1
 70
     6
  9
$SURFTAB2
 70
     6
  9
$SURFTYPE
 70
     6
  9
$SURFU
 70
     6
  9
$SURFV
 70
     6
  9
$UCSBASE
  2

  9
$UCSNAME
  2

  9
$UCSORG
 10
0.0
 20
0.0
 30
0.0
  9
$UCSXDIR
 10
1.0
 20
0.0
 30
0.0
  9
$UCSYDIR
 10
0.0
 20
1.0
 30
0.0
  9
$UCSORTHOREF
  2

  9
$UCSORTHOVIEW
 70
     0
  9
$UCSORGTOP
 10
0.0
 20
0.0
 30
0.0
  9
$UCSORGBOTTOM
 10
0.0
 20
0.0
 30
0.0
  9
$UCSORGLEFT
 10
0.0
 20
0.0
 30
0.0
  9
$UCSORGRIGHT
 10
0.0
 20
0.0
 30
0.0
  9
$UCSORGFRONT
 10
0.0
 20
0.0
 30
0.0
  9
$UCSORGBACK
 10
0.0
 20
0.0
 30
0.0
  9
$PUCSBASE
  2

  9
$PUCSNAME
  2

  9
$PUCSORG
 10
0.0
 20
0.0
 30
0.0
  9
$PUCSXDIR
 10
1.0
 20
0.0
 30
0.0
  9
$PUCSYDIR
 10
0.0
 20
1.0
 30
0.0
  9
$PUCSORTHOREF
  2

  9
$PUCSORTHOVIEW
 70
     0
  9
$PUCSORGTOP
 10
0.0
 20
0.0
 30
0.0
  9
$PUCSORGBOTTOM
 10
0.0
 20
0.0
 30
0.0
  9
$PUCSORGLEFT
 10
0.0
 20
0.0
 30
0.0
  9
$PUCSORGRIGHT
 10
0.0
 20
0.0
 30
0.0
  9
$PUCSORGFRONT
 10
0.0
 20
0.0
 30
0.0
  9
$PUCSORGBACK
 10
0.0
 20
0.0
 30
0.0
  9
$USERI1
 70
     0
  9
$USERI2
 70
     0
  9
$USERI3
 70
     0
  9
$USERI4
 70
     0
  9
$USERI5
 70
     0
  9
$USERR1
 40
0.0
  9
$USERR2
 40
0.0
  9
$USERR3
 40
0.0
  9
$USERR4
 40
0.0
  9
$USERR5
 40
0.0
  9
$WORLDVIEW
 70
     1
  9
$SHADEDGE
 70
     3
  9
$SHADEDIF
 70
    70
  9
$TILEMODE
 70
     1
  9
$MAXACTVP
 70
    64
  9
$PINSBASE
 10
0.0
 20
0.0
 30
0.0
  9
$PLIMCHECK
 70
     0
  9
$PEXTMIN
 10
1.000000000000000E+20
 20
1.000000000000000E+20
 30
1.000000000000000E+20
  9
$PEXTMAX
 10
-1.000000000000000E+20
 20
-1.000000000000000E+20
 30
-1.000000000000000E+20
  9
$PLIMMIN
 10
0.0
 20
0.0
  9
$PLIMMAX
 10
12.0
 20
9.0
  9
$UNITMODE
 70
     0
  9
$VISRETAIN
 70
     1
  9
$PLINEGEN
 70
     0
  9
$PSLTSCALE
 70
     1
  9
$TREEDEPTH
 70
  3020
  9
$CMLSTYLE
  2
Standard
  9
$CMLJUST
 70
     0
  9
$CMLSCALE
 40
1.0
  9
$PROXYGRAPHICS
 70
     1
  9
$MEASUREMENT
 70
     0
  9
$CELWEIGHT
370
    -1
  9
$ENDCAPS
280
     0
  9
$JOINSTYLE
280
     0
  9
$LWDISPLAY
290
     1
  9
$INSUNITS
 70
     1
  9
$HYPERLINKBASE
  1

  9
$STYLESHEET
  1

  9
$XEDIT
290
     1
  9
$CEPSNTYPE
380
     0
  9
$PSTYLEMODE
290
     1
  9
$FINGERPRINTGUID
  2
{C4378D32-0D93-45DA-B8AF-39789A2A144D}
  9
$VERSIONGUID
  2
{FAEB1C32-E019-11D5-929B-00C0DF256EC4}
  9
$EXTNAMES
290
     1
  9
$PSVPSCALE
 40
0.0
  9
$OLESTARTUP
290
     0
  9
$SORTENTS
280
   127
  9
$INDEXCTL
280
     0
  9
$HIDETEXT
280
     1
  9
$XCLIPFRAME
290
     0
  9
$HALOGAP
280
     0
  9
$OBSCOLOR
 70
   257
  9
$OBSLTYPE
280
     0
  9
$INTERSECTIONDISPLAY
280
     0
  9
$INTERSECTIONCOLOR
 70
   257
  9
$DIMASSOC
280
     2
  9
$PROJECTNAME
  1

  0
ENDSEC
  0
SECTION
  2
CLASSES
  0
CLASS
  1
ACDBDICTIONARYWDFLT
  2
AcDbDictionaryWithDefault
  3
ObjectDBX Classes
 90
        0
 91
        3
280
     0
281
     0
  0
CLASS
  1
VISUALSTYLE
  2
AcDbVisualStyle
  3
ObjectDBX Classes
 90
     4095
 91
        3
280
     0
281
     0
  0
ENDSEC
  0
SECTION
  2
TABLES
  0
TABLE
  2
VPORT
  5
8
330
0
100
AcDbSymbolTable
 70
     1
  0
VPORT
  5
29
330
8
100
AcDbSymbolTableRecord
100
AcDbViewportTableRecord
  2
*Active
 70
     0
 10
0.0
 20
0.0
 11
1.0
 21
1.0
 12
0.0
 22
0.0
 13
0.0
 23
0.0
 14
0.5
 24
0.5
 15
0.5
 25
0.5
 16
0.0
 26
0.0
 36
1.0
 17
351.5714510529948
 27
617.6936256506021
 37
0.0
 40
1798.02369481132
 41
0.9661516190765065
 42
50.0
 43
0.0
 44
0.0
 50
0.0
 51
0.0
 71
     0
 72
   100
 73
     1
 74
     3
 75
     0
 76
     0
 77
     0
 78
     0
281
     0
 65
     1
110
0.0
120
0.0
130
0.0
111
1.0
121
0.0
131
0.0
112
0.0
122
1.0
132
0.0
 79
     0
146
0.0
  0
ENDTAB
  0
TABLE
  2
LTYPE
  5
5
330
0
100
AcDbSymbolTable
 70
    21
  0
LTYPE
  5
14
330
5
100
AcDbSymbolTableRecord
100
AcDbLinetypeTableRecord
  2
ByBlock
 70
     0
  3

 72
    65
 73
     0
 40
0.0
  0
LTYPE
  5
15
330
5
100
AcDbSymbolTableRecord
100
AcDbLinetypeTableRecord
  2
ByLayer
 70
     0
  3

 72
    65
 73
     0
 40
0.0
  0
LTYPE
  5
16
330
5
100
AcDbSymbolTableRecord
100
AcDbLinetypeTableRecord
  2
Continuous
 70
     0
  3
Solid line
 72
    65
 73
     0
 40
0.0
  0
LTYPE
  5
4F
330
5
100
AcDbSymbolTableRecord
100
AcDbLinetypeTableRecord
  2
AI-Linetype-1
 70
     0
  3
Adobe Illustrator Linetype No. 1
 72
    65
 73
     2
 40
6.350004187474984
 49
3.175002093737492
 74
     0
 49
-3.175002093737492
 74
     0
  0
LTYPE
  5
51
330
5
100
AcDbSymbolTableRecord
100
AcDbLinetypeTableRecord
  2
AI-Linetype-2
 70
     0
  3
Adobe Illustrator Linetype No. 2
 72
    65
 73
     2
 40
6.350004187474984
 49
3.175002093737492
 74
     0
 49
-3.175002093737492
 74
     0
  0
LTYPE
  5
5F
330
5
100
AcDbSymbolTableRecord
100
AcDbLinetypeTableRecord
  2
AI-Linetype-3
 70
     0
  3
Adobe Illustrator Linetype No. 3
 72
    65
 73
     2
 40
6.350004187474984
 49
3.175002093737492
 74
     0
 49
-3.175002093737492
 74
     0
  0
LTYPE
  5
61
330
5
100
AcDbSymbolTableRecord
100
AcDbLinetypeTableRecord
  2
AI-Linetype-4
 70
     0
  3
Adobe Illustrator Linetype No. 4
 72
    65
 73
     2
 40
6.350004187474984
 49
3.175002093737492
 74
     0
 49
-3.175002093737492
 74
     0
  0
LTYPE
  5
63
330
5
100
AcDbSymbolTableRecord
100
AcDbLinetypeTableRecord
  2
AI-Linetype-5
 70
     0
  3
Adobe Illustrator Linetype No. 5
 72
    65
 73
     2
 40
6.350004187474984
 49
3.175002093737492
 74
     0
 49
-3.175002093737492
 74
     0
  0
LTYPE
  5
6F
330
5
100
AcDbSymbolTableRecord
100
AcDbLinetypeTableRecord
  2
AI-Linetype-6
 70
     0
  3
Adobe Illustrator Linetype No. 6
 72
    65
 73
     2
 40
6.350004187474984
 49
3.175002093737492
 74
     0
 49
-3.175002093737492
 74
     0
  0
LTYPE
  5
71
330
5
100
AcDbSymbolTableRecord
100
AcDbLinetypeTableRecord
  2
AI-Linetype-7
 70
     0
  3
Adobe Illustrator Linetype No. 7
 72
    65
 73
     2
 40
6.350004187474984
 49
3.175002093737492
 74
     0
 49
-3.175002093737492
 74
     0
  0
LTYPE
  5
7F
330
5
100
AcDbSymbolTableRecord
100
AcDbLinetypeTableRecord
  2
AI-Linetype-8
 70
     0
  3
Adobe Illustrator Linetype No. 8
 72
    65
 73
     2
 40
6.350004187474984
 49
3.175002093737492
 74
     0
 49
-3.175002093737492
 74
     0
  0
LTYPE
  5
81
330
5
100
AcDbSymbolTableRecord
100
AcDbLinetypeTableRecord
  2
AI-Linetype-9
 70
     0
  3
Adobe Illustrator Linetype No. 9
 72
    65
 73
     2
 40
6.350004187474984
 49
3.175002093737492
 74
     0
 49
-3.175002093737492
 74
     0
  0
LTYPE
  5
83
330
5
100
AcDbSymbolTableRecord
100
AcDbLinetypeTableRecord
  2
AI-Linetype-10
 70
     0
  3
Adobe Illustrator Linetype No. 10
 72
    65
 73
     2
 40
6.350004187474984
 49
3.175002093737492
 74
     0
 49
-3.175002093737492
 74
     0
  0
LTYPE
  5
153
330
5
100
AcDbSymbolTableRecord
100
AcDbLinetypeTableRecord
  2
AI-Linetype-11
 70
     0
  3
Adobe Illustrator Linetype No. 11
 72
    65
 73
     2
 40
6.350004187474984
 49
3.175002093737492
 74
     0
 49
-3.175002093737492
 74
     0
  0
LTYPE
  5
155
330
5
100
AcDbSymbolTableRecord
100
AcDbLinetypeTableRecord
  2
AI-Linetype-12
 70
     0
  3
Adobe Illustrator Linetype No. 12
 72
    65
 73
     2
 40
6.350004187474984
 49
3.175002093737492
 74
     0
 49
-3.175002093737492
 74
     0
  0
LTYPE
  5
15F
330
5
100
AcDbSymbolTableRecord
100
AcDbLinetypeTableRecord
  2
AI-Linetype-13
 70
     0
  3
Adobe Illustrator Linetype No. 13
 72
    65
 73
     2
 40
6.350004187474984
 49
3.175002093737492
 74
     0
 49
-3.175002093737492
 74
     0
  0
LTYPE
  5
161
330
5
100
AcDbSymbolTableRecord
100
AcDbLinetypeTableRecord
  2
AI-Linetype-14
 70
     0
  3
Adobe Illustrator Linetype No. 14
 72
    65
 73
     2
 40
6.350004187474984
 49
3.175002093737492
 74
     0
 49
-3.175002093737492
 74
     0
  0
LTYPE
  5
1E8
330
5
100
AcDbSymbolTableRecord
100
AcDbLinetypeTableRecord
  2
AI-Linetype-15
 70
     0
  3
Adobe Illustrator Linetype No. 15
 72
    65
 73
     2
 40
6.350004187474984
 49
3.175002093737492
 74
     0
 49
-3.175002093737492
 74
     0
  0
LTYPE
  5
1EA
330
5
100
AcDbSymbolTableRecord
100
AcDbLinetypeTableRecord
  2
AI-Linetype-16
 70
     0
  3
Adobe Illustrator Linetype No. 16
 72
    65
 73
     2
 40
6.350004187474984
 49
3.175002093737492
 74
     0
 49
-3.175002093737492
 74
     0
  0
LTYPE
  5
1EC
330
5
100
AcDbSymbolTableRecord
100
AcDbLinetypeTableRecord
  2
AI-Linetype-17
 70
     0
  3
Adobe Illustrator Linetype No. 17
 72
    65
 73
     2
 40
6.350004187474984
 49
3.175002093737492
 74
     0
 49
-3.175002093737492
 74
     0
  0
LTYPE
  5
1EE
330
5
100
AcDbSymbolTableRecord
100
AcDbLinetypeTableRecord
  2
AI-Linetype-18
 70
     0
  3
Adobe Illustrator Linetype No. 18
 72
    65
 73
     2
 40
6.350004187474984
 49
3.175002093737492
 74
     0
 49
-3.175002093737492
 74
     0
  0
LTYPE
  5
1F6
330
5
100
AcDbSymbolTableRecord
100
AcDbLinetypeTableRecord
  2
AI-Linetype-19
 70
     0
  3
Adobe Illustrator Linetype No. 19
 72
    65
 73
     2
 40
6.350004187474984
 49
3.175002093737492
 74
     0
 49
-3.175002093737492
 74
     0
  0
LTYPE
  5
1F8
330
5
100
AcDbSymbolTableRecord
100
AcDbLinetypeTableRecord
  2
AI-Linetype-20
 70
     0
  3
Adobe Illustrator Linetype No. 20
 72
    65
 73
     2
 40
6.350004187474984
 49
3.175002093737492
 74
     0
 49
-3.175002093737492
 74
     0
  0
ENDTAB
  0
TABLE
  2
LAYER
  5
2
330
0
100
AcDbSymbolTable
 70
     2
  0
LAYER
  5
10
330
2
100
AcDbSymbolTableRecord
100
AcDbLayerTableRecord
  2
0
 70
     0
 62
     7
  6
Continuous
370
    -3
390
F
  0
LAYER
  5
3B
330
2
100
AcDbSymbolTableRecord
100
AcDbLayerTableRecord
  2
\U+30EC\U+30A4\U+30E4\U+30FC 1
 70
     0
 62
     7
  6
Continuous
370
    -3
390
F
  0
ENDTAB
  0
TABLE
  2
STYLE
  5
3
330
0
100
AcDbSymbolTable
 70
     1
  0
STYLE
  5
11
330
3
100
AcDbSymbolTableRecord
100
AcDbTextStyleTableRecord
  2
Standard
 70
     0
 40
0.0
 41
1.0
 50
0.0
 71
     0
 42
0.2
  3
txt
  4

  0
ENDTAB
  0
TABLE
  2
VIEW
  5
6
330
0
100
AcDbSymbolTable
 70
     0
  0
ENDTAB
  0
TABLE
  2
UCS
  5
7
330
0
100
AcDbSymbolTable
 70
     0
  0
ENDTAB
  0
TABLE
  2
APPID
  5
9
330
0
100
AcDbSymbolTable
 70
     1
  0
APPID
  5
12
330
9
100
AcDbSymbolTableRecord
100
AcDbRegAppTableRecord
  2
ACAD
 70
     0
  0
ENDTAB
  0
TABLE
  2
DIMSTYLE
  5
A
330
0
100
AcDbSymbolTable
 70
     1
100
AcDbDimStyleTable
  0
DIMSTYLE
105
27
330
A
100
AcDbSymbolTableRecord
100
AcDbDimStyleTableRecord
  2
Standard
 70
     0
340
11
  0
ENDTAB
  0
TABLE
  2
BLOCK_RECORD
  5
1
330
0
100
AcDbSymbolTable
 70
    19
  0
BLOCK_RECORD
  5
1F
330
1
100
AcDbSymbolTableRecord
100
AcDbBlockTableRecord
  2
*Model_Space
340
22
  0
BLOCK_RECORD
  5
1B
330
1
100
AcDbSymbolTableRecord
100
AcDbBlockTableRecord
  2
*Paper_Space
340
1E
  0
BLOCK_RECORD
  5
23
330
1
100
AcDbSymbolTableRecord
100
AcDbBlockTableRecord
  2
*Paper_Space0
340
26
  0
BLOCK_RECORD
  5
3C
330
1
100
AcDbSymbolTableRecord
100
AcDbBlockTableRecord
  2
block 2
340
0
102
{BLKREFS
331
3D
102
}
  0
BLOCK_RECORD
  5
40
330
1
100
AcDbSymbolTableRecord
100
AcDbBlockTableRecord
  2
block 3
340
0
102
{BLKREFS
331
41
102
}
  0
BLOCK_RECORD
  5
44
330
1
100
AcDbSymbolTableRecord
100
AcDbBlockTableRecord
  2
block 4
340
0
102
{BLKREFS
331
45
102
}
  0
BLOCK_RECORD
  5
64
330
1
100
AcDbSymbolTableRecord
100
AcDbBlockTableRecord
  2
block 5
340
0
102
{BLKREFS
331
65
102
}
  0
BLOCK_RECORD
  5
84
330
1
100
AcDbSymbolTableRecord
100
AcDbBlockTableRecord
  2
block 6
340
0
102
{BLKREFS
331
85
102
}
  0
BLOCK_RECORD
  5
90
330
1
100
AcDbSymbolTableRecord
100
AcDbBlockTableRecord
  2
block 7
340
0
102
{BLKREFS
331
91
102
}
  0
BLOCK_RECORD
  5
AC
330
1
100
AcDbSymbolTableRecord
100
AcDbBlockTableRecord
  2
block 8
340
0
102
{BLKREFS
331
AD
102
}
  0
BLOCK_RECORD
  5
B2
330
1
100
AcDbSymbolTableRecord
100
AcDbBlockTableRecord
  2
block 9
340
0
102
{BLKREFS
331
B3
102
}
  0
BLOCK_RECORD
  5
F9
330
1
100
AcDbSymbolTableRecord
100
AcDbBlockTableRecord
  2
block 10
340
0
102
{BLKREFS
331
FA
102
}
  0
BLOCK_RECORD
  5
FF
330
1
100
AcDbSymbolTableRecord
100
AcDbBlockTableRecord
  2
block 11
340
0
102
{BLKREFS
331
100
102
}
  0
BLOCK_RECORD
  5
143
330
1
100
AcDbSymbolTableRecord
100
AcDbBlockTableRecord
  2
block 12
340
0
102
{BLKREFS
331
144
102
}
  0
BLOCK_RECORD
  5
147
330
1
100
AcDbSymbolTableRecord
100
AcDbBlockTableRecord
  2
block 13
340
0
102
{BLKREFS
331
148
102
}
  0
BLOCK_RECORD
  5
14B
330
1
100
AcDbSymbolTableRecord
100
AcDbBlockTableRecord
  2
block 14
340
0
102
{BLKREFS
331
14C
102
}
  0
BLOCK_RECORD
  5
157
330
1
100
AcDbSymbolTableRecord
100
AcDbBlockTableRecord
  2
block 15
340
0
102
{BLKREFS
331
158
102
}
  0
BLOCK_RECORD
  5
163
330
1
100
AcDbSymbolTableRecord
100
AcDbBlockTableRecord
  2
block 16
340
0
102
{BLKREFS
331
164
102
}
  0
BLOCK_RECORD
  5
176
330
1
100
AcDbSymbolTableRecord
100
AcDbBlockTableRecord
  2
block 17
340
0
102
{BLKREFS
331
177
102
}
  0
BLOCK_RECORD
  5
17A
330
1
100
AcDbSymbolTableRecord
100
AcDbBlockTableRecord
  2
block 18
340
0
102
{BLKREFS
331
17B
102
}
  0
BLOCK_RECORD
  5
18D
330
1
100
AcDbSymbolTableRecord
100
AcDbBlockTableRecord
  2
block 19
340
0
102
{BLKREFS
331
18E
102
}
  0
ENDTAB
  0
ENDSEC
  0
SECTION
  2
BLOCKS
  0
BLOCK
  5
20
330
1F
100
AcDbEntity
  8
0
100
AcDbBlockBegin
  2
*Model_Space
 70
     0
 71
     0
 10
0.0
 20
0.0
 30
0.0
  3
*Model_Space
  1

  0
ENDBLK
  5
21
330
1F
100
AcDbEntity
  8
0
100
AcDbBlockEnd
  0
BLOCK
  5
1C
330
1B
100
AcDbEntity
 67
     1
  8
0
100
AcDbBlockBegin
  2
*Paper_Space
 70
     0
 71
     0
 10
0.0
 20
0.0
 30
0.0
  3
*Paper_Space
  1

  0
ENDBLK
  5
1D
330
1B
100
AcDbEntity
 67
     1
  8
0
100
AcDbBlockEnd
  0
BLOCK
  5
24
330
23
100
AcDbEntity
  8
0
100
AcDbBlockBegin
  2
*Paper_Space0
 70
     0
 71
     0
 10
0.0
 20
0.0
 30
0.0
  3
*Paper_Space0
  1

  0
ENDBLK
  5
25
330
23
100
AcDbEntity
  8
0
100
AcDbBlockEnd
  0
BLOCK
  5
3E
330
3C
100
AcDbEntity
  8
0
100
AcDbBlockBegin
  2
block 2
 70
     0
 71
     0
 10
0.0
 20
0.0
 30
0.0
  3
block 2
  1

  0
INSERT
  5
41
330
3C
100
AcDbEntity
  8
\U+30EC\U+30A4\U+30E4\U+30FC 1
100
AcDbBlockReference
  2
block 3
 10
0.0
 20
0.0
 30
0.0
  0
INSERT
  5
85
330
3C
100
AcDbEntity
  8
\U+30EC\U+30A4\U+30E4\U+30FC 1
100
AcDbBlockReference
  2
block 6
 10
0.0
 20
0.0
 30
0.0
  0
ENDBLK
  5
3F
330
3C
100
AcDbEntity
  8
0
100
AcDbBlockEnd
  0
BLOCK
  5
42
330
40
100
AcDbEntity
  8
0
100
AcDbBlockBegin
  2
block 3
 70
     0
 71
     0
 10
0.0
 20
0.0
 30
0.0
  3
block 3
  1

  0
INSERT
  5
45
330
40
100
AcDbEntity
  8
\U+30EC\U+30A4\U+30E4\U+30FC 1
100
AcDbBlockReference
  2
block 4
 10
0.0
 20
0.0
 30
0.0
  0
INSERT
  5
65
330
40
100
AcDbEntity
  8
\U+30EC\U+30A4\U+30E4\U+30FC 1
100
AcDbBlockReference
  2
block 5
 10
0.0
 20
0.0
 30
0.0
  0
ENDBLK
  5
43
330
40
100
AcDbEntity
  8
0
100
AcDbBlockEnd
  0
BLOCK
  5
46
330
44
100
AcDbEntity
  8
0
100
AcDbBlockBegin
  2
block 4
 70
     0
 71
     0
 10
0.0
 20
0.0
 30
0.0
  3
block 4
  1

  0
POLYLINE
  5
48
330
44
100
AcDbEntity
  8
\U+30EC\U+30A4\U+30E4\U+30FC 1
 62
   250
420
  2234132
370
    18
100
AcDb2dPolyline
 66
     1
 10
0.0
 20
0.0
 30
0.0
  0
VERTEX
  5
49
330
48
100
AcDbEntity
  8
\U+30EC\U+30A4\U+30E4\U+30FC 1
 62
   250
420
  2234132
370
    18
100
AcDbVertex
100
AcDb2dVertex
 10
-169.9795730838386
 20
509.3721729252191
 30
0.0
  0
VERTEX
  5
4A
330
48
100
AcDbEntity
  8
\U+30EC\U+30A4\U+30E4\U+30FC 1
 62
   250
420
  2234132
370
    18
100
AcDbVertex
100
AcDb2dVertex
 10
-169.9795730838386
 20
218.9852274164041
 30
0.0
  0
SEQEND
  5
4B
330
48
100
AcDbEntity
  8
\U+30EC\U+30A4\U+30E4\U+30FC 1
370
    18
  0
SPLINE
  5
4C
330
44
100
AcDbEntity
  8
\U+30EC\U+30A4\U+30E4\U+30FC 1
 62
   250
420
  2234132
370
    18
100
AcDbSpline
210
0.0
220
0.0
230
1.0
 70
     8
 71
     3
 72
    17
 73
    13
 74
     0
 42
0.0000000001
 43
0.0000000001
 40
0.0
 40
0.0
 40
0.0
 40
0.0
 40
1.0
 40
1.0
 40
1.0
 40
2.0
 40
2.0
 40
2.0
 40
3.0
 40
3.0
 40
3.0
 40
4.0
 40
4.0
 40
4.0
 40
4.0
 10
-170.0240148449163
 20
171.1553849486309
 30
0.0
 10
-177.4895416864193
 20
171.1553849486309
 30
0.0
 10
-210.1514800003267
 20
170.0445131765762
 30
0.0
 10
-221.1720032182703
 20
170.222280220887
 30
0.0
 10
-232.1926986911019
 20
170.4000472651979
 30
0.0
 10
-270.5869351644817
 20
170.7554090989316
 30
0.0
 10
-286.7623581576634
 20
170.7554090989316
 30
0.0
 10
-302.9377811508451
 20
170.7554090989316
 30
0.0
 10
-353.952444240966
 20
167.3781797668018
 30
0.0
 10
-365.1507345032205
 20
166.3117497558247
 30
0.0
 10
-376.349024765475
 20
165.2451474899598
 30
0.0
 10
-400.701042777403
 20
163.8231833903611
 30
0.0
 10
-404.2560391538436
 20
162.0456852021408
 30
0.0
  0
SPLINE
  5
4D
330
44
100
AcDbEntity
  8
\U+30EC\U+30A4\U+30E4\U+30FC 1
 62
   250
420
  2234132
370
    18
100
AcDbSpline
210
0.0
220
0.0
230
1.0
 70
     8
 71
     3
 72
    29
 73
    25
 74
     0
 42
0.0000000001
 43
0.0000000001
 40
0.0
 40
0.0
 40
0.0
 40
0.0
 40
1.0
 40
1.0
 40
1.0
 40
2.0
 40
2.0
 40
2.0
 40
3.0
 40
3.0
 40
3.0
 40
4.0
 40
4.0
 40
4.0
 40
5.0
 40
5.0
 40
5.0
 40
6.0
 40
6.0
 40
6.0
 40
7.0
 40
7.0
 40
7.0
 40
8.0
 40
8.0
 40
8.0
 40
8.0
 10
-169.9795730838386
 20
85.3457512677607
 30
0.0
 10
-178.1561681025849
 20
85.3457512677607
 30
0.0
 10
-216.4318932130909
 20
85.61274634400273
 30
0.0
 10
-248.4272051108326
 20
85.1387008925072
 30
0.0
 10
-280.4225170085745
 20
84.66431093123589
 30
0.0
 10
-360.4107967529289
 20
79.92454543583219
 30
0.0
 10
-372.0240490401299
 20
79.92454543583219
 30
0.0
 10
-383.6373013273308
 20
79.92454543583219
 30
0.0
 10
-395.368548212742
 20
82.76847363502957
 30
0.0
 10
-399.51627365844
 20
91.77430368411721
 30
0.0
 10
-402.6905867326258
 20
98.66656625869537
 30
0.0
 10
-407.0360607896308
 20
115.710842906435
 30
0.0
 10
-407.2188232256907
 20
126.1398428393367
 30
0.0
 10
-407.4556736965505
 20
139.6491046776318
 30
0.0
 10
-407.4560182063263
 20
153.6320674576467
 30
0.0
 10
-406.0340541067276
 20
158.1351547370784
 30
0.0
 10
-404.6119177522411
 20
162.6380697616223
 30
0.0
 10
-400.5830481791928
 20
169.2740170630081
 30
0.0
 10
-388.9697958919919
 20
174.0141270681875
 30
0.0
 10
-377.3565436047909
 20
178.7542370733671
 30
0.0
 10
-327.5864220797337
 20
185.6272071005006
 30
0.0
 10
-297.2500970073383
 20
185.6272071005006
 30
0.0
 10
-266.913771934943
 20
185.6272071005006
 30
0.0
 10
-177.0452963305302
 20
186.8419485699579
 30
0.0
 10
-169.9351313227609
 20
186.8419485699579
 30
0.0
  0
SPLINE
  5
4E
330
44
100
AcDbEntity
  8
\U+30EC\U+30A4\U+30E4\U+30FC 1
  6
AI-Linetype-1
 62
   250
420
  2234132
370
    18
100
AcDbSpline
210
0.0
220
0.0
230
1.0
 70
     8
 71
     3
 72
    17
 73
    13
 74
     0
 42
0.0000000001
 43
0.0000000001
 40
0.0
 40
0.0
 40
0.0
 40
0.0
 40
1.0
 40
1.0
 40
1.0
 40
2.0
 40
2.0
 40
2.0
 40
3.0
 40
3.0
 40
3.0
 40
4.0
 40
4.0
 40
4.0
 40
4.0
 10
-169.8906895616832
 20
167.8225973775788
 30
0.0
 10
-177.3563886580741
 20
167.8225973775788
 30
0.0
 10
-201.1751055370696
 20
167.8225973775788
 30
0.0
 10
-229.3485982370166
 20
167.4670632889572
 30
0.0
 10
-257.5222631918515
 20
167.1115292003355
 30
0.0
 10
-280.8076789379145
 20
167.7337138554234
 30
0.0
 10
-300.7158653518478
 20
167.2004127224909
 30
0.0
 10
-320.624051765781
 20
166.6671115895585
 30
0.0
 10
-348.7088331984605
 20
164.0898339568273
 30
0.0
 10
-364.4396663259772
 20
162.8454646466515
 30
0.0
 10
-380.1706717083819
 20
161.6012675913637
 30
0.0
 10
-400.1677416444705
 20
160.3570705360758
 30
0.0
 10
-405.6781755083302
 20
159.2904682702109
 30
0.0
  0
SPLINE
  5
50
330
44
100
AcDbEntity
  8
\U+30EC\U+30A4\U+30E4\U+30FC 1
  6
AI-Linetype-2
 62
   250
420
  2234132
370
    18
100
AcDbSpline
210
0.0
220
0.0
230
1.0
 70
     8
 71
     3
 72
    20
 73
    16
 74
     0
 42
0.0000000001
 43
0.0000000001
 40
0.0
 40
0.0
 40
0.0
 40
0.0
 40
1.0
 40
1.0
 40
1.0
 40
2.0
 40
2.0
 40
2.0
 40
3.0
 40
3.0
 40
3.0
 40
4.0
 40
4.0
 40
4.0
 40
5.0
 40
5.0
 40
5.0
 40
5.0
 10
-169.9795730838386
 20
174.5770560418385
 30
0.0
 10
-180.1114333351161
 20
174.5770560418385
 30
0.0
 10
-210.5958976111037
 20
174.7548230861493
 30
0.0
 10
-231.0372129030815
 20
174.6659395639939
 30
0.0
 10
-251.4787004499472
 20
174.5770560418385
 30
0.0
 10
-285.9624064582648
 20
175.0214736526156
 30
0.0
 10
-297.2497524975625
 20
174.6659395639939
 30
0.0
 10
-308.5369262819724
 20
174.3105777302601
 30
0.0
 10
-334.1331413491882
 20
174.3105777302601
 30
0.0
 10
-349.6863796872821
 20
172.5329072871519
 30
0.0
 10
-365.2396180253759
 20
170.7554090989316
 30
0.0
 10
-384.5256197842212
 20
168.0003644218896
 30
0.0
 10
-390.7469495704364
 20
167.3781797668018
 30
0.0
 10
-396.9682793566515
 20
166.7559951117139
 30
0.0
 10
-399.9899746001597
 20
166.7559951117139
 30
0.0
 10
-401.8565285654233
 20
165.511798056426
 30
0.0
  0
SPLINE
  5
52
330
44
100
AcDbEntity
  8
\U+30EC\U+30A4\U+30E4\U+30FC 1
 62
   250
420
  2234132
370
    18
100
AcDbSpline
210
0.0
220
0.0
230
1.0
 70
     8
 71
     3
 72
    41
 73
    37
 74
     0
 42
0.0000000001
 43
0.0000000001
 40
0.0
 40
0.0
 40
0.0
 40
0.0
 40
1.0
 40
1.0
 40
1.0
 40
2.0
 40
2.0
 40
2.0
 40
3.0
 40
3.0
 40
3.0
 40
4.0
 40
4.0
 40
4.0
 40
5.0
 40
5.0
 40
5.0
 40
6.0
 40
6.0
 40
6.0
 40
7.0
 40
7.0
 40
7.0
 40
8.0
 40
8.0
 40
8.0
 40
9.0
 40
9.0
 40
9.0
 40
10.0
 40
10.0
 40
10.0
 40
11.0
 40
11.0
 40
11.0
 40
12.0
 40
12.0
 40
12.0
 40
12.0
 10
-170.068456605994
 20
219.0150275120105
 30
0.0
 10
-182.6888832227351
 20
219.0150275120105
 30
0.0
 10
-220.5499908180703
 20
222.2144897998296
 30
0.0
 10
-239.036040877517
 20
229.146887763288
 30
0.0
 10
-257.5222631918515
 20
236.0791134718584
 30
0.0
 10
-280.0077272385158
 20
244.522359057071
 30
0.0
 10
-305.3374639941534
 20
256.6094845408796
 30
0.0
 10
-330.667028494903
 20
268.6966100246881
 30
0.0
 10
-355.0779576784921
 20
278.7693868494165
 30
0.0
 10
-368.824242242535
 20
285.4053341508023
 30
0.0
 10
-382.5488226907028
 20
292.0309461589142
 30
0.0
 10
-402.7451915320895
 20
301.3435621633484
 30
0.0
 10
-416.2542811154968
 20
305.1355812655368
 30
0.0
 10
-429.763542953792
 20
308.9276003677252
 30
0.0
 10
-467.4467112499285
 20
311.2680275295965
 30
0.0
 10
-478.2007561562938
 20
309.0461117305991
 30
0.0
 10
-488.0750953501636
 20
307.0059248383342
 30
0.0
 10
-496.0944216562589
 20
316.9264283421607
 30
0.0
 10
-498.4643044039608
 20
330.435517925568
 30
0.0
 10
-500.8343594065505
 20
343.9446075089753
 30
0.0
 10
-500.1234634841952
 20
364.3270116292919
 30
0.0
 10
-497.2793630301098
 20
373.5702089139031
 30
0.0
 10
-494.4352625760246
 20
382.8132339436264
 30
0.0
 10
-485.6664552526847
 20
391.1081680703587
 30
0.0
 10
-468.3651743122011
 20
393.2412003472006
 30
0.0
 10
-451.0638933717175
 20
395.3742326240426
 30
0.0
 10
-423.8083469693794
 20
392.5303044248452
 30
0.0
 10
-411.2475205438511
 20
383.9981753174773
 30
0.0
 10
-398.6863496085469
 20
375.4662184649973
 30
0.0
 10
-387.5474872826173
 20
360.0611193304958
 30
0.0
 10
-390.154392756067
 20
344.8928706668542
 30
0.0
 10
-392.7612982295166
 20
329.7246220032126
 30
0.0
 10
-399.2597861303597
 20
317.6187207366231
 30
0.0
 10
-402.2415182398755
 20
315.7416592231976
 30
0.0
 10
-410.4773689400587
 20
310.5569593523532
 30
0.0
 10
-421.9424820236674
 20
306.7353124094463
 30
0.0
 10
-429.4968923873257
 20
307.6241476310004
 30
0.0
  0
SPLINE
  5
53
330
44
100
AcDbEntity
  8
\U+30EC\U+30A4\U+30E4\U+30FC 1
 62
   250
420
  2234132
370
    18
100
AcDbSpline
210
0.0
220
0.0
230
1.0
 70
     8
 71
     3
 72
    20
 73
    16
 74
     0
 42
0.0000000001
 43
0.0000000001
 40
0.0
 40
0.0
 40
0.0
 40
0.0
 40
1.0
 40
1.0
 40
1.0
 40
2.0
 40
2.0
 40
2.0
 40
3.0
 40
3.0
 40
3.0
 40
4.0
 40
4.0
 40
4.0
 40
5.0
 40
5.0
 40
5.0
 40
5.0
 10
-169.9795730838386
 20
509.4312563517681
 30
0.0
 10
-183.9627081187414
 20
509.4312563517681
 30
0.0
 10
-207.840508424286
 20
507.2389683934892
 30
0.0
 10
-226.7415205086791
 20
505.6984929310166
 30
0.0
 10
-245.6425325930722
 20
504.1580174685441
 30
0.0
 10
-271.5941094940218
 20
500.6028488372155
 30
0.0
 10
-293.5760725033601
 20
494.5002026687621
 30
0.0
 10
-315.5580355126983
 20
488.3973842454209
 30
0.0
 10
-337.6586821397983
 20
474.7103553628149
 30
0.0
 10
-349.0939951278006
 20
467.5411069284967
 30
0.0
 10
-360.5293081158028
 20
460.3718584941784
 30
0.0
 10
-387.784682263253
 20
440.1673936730605
 30
0.0
 10
-405.6781755083302
 20
423.4586695469463
 30
0.0
 10
-423.5716687534074
 20
406.75011767572
 30
0.0
 10
-432.459331949397
 20
398.21816082324
 30
0.0
 10
-436.8439078659549
 20
392.4116208070835
 30
0.0
  0
POLYLINE
  5
54
330
44
100
AcDbEntity
  8
\U+30EC\U+30A4\U+30E4\U+30FC 1
 62
   250
420
  2234132
370
    18
100
AcDb2dPolyline
 66
     1
 10
0.0
 20
0.0
 30
0.0
  0
VERTEX
  5
55
330
54
100
AcDbEntity
  8
\U+30EC\U+30A4\U+30E4\U+30FC 1
 62
   250
420
  2234132
370
    18
100
AcDbVertex
100
AcDb2dVertex
 10
-181.5926531161517
 20
186.6938093663655
 30
0.0
  0
VERTEX
  5
56
330
54
100
AcDbEntity
  8
\U+30EC\U+30A4\U+30E4\U+30FC 1
 62
   250
420
  2234132
370
    18
100
AcDbVertex
100
AcDb2dVertex
 10
-181.5926531161517
 20
219.4000171864627
 30
0.0
  0
SEQEND
  5
57
330
54
100
AcDbEntity
  8
\U+30EC\U+30A4\U+30E4\U+30FC 1
370
    18
  0
SPLINE
  5
58
330
44
100
AcDbEntity
  8
\U+30EC\U+30A4\U+30E4\U+30FC 1
 62
   250
420
  2234132
370
    18
100
AcDbSpline
210
0.0
220
0.0
230
1.0
 70
     8
 71
     3
 72
    20
 73
    16
 74
     0
 42
0.0000000001
 43
0.0000000001
 40
0.0
 40
0.0
 40
0.0
 40
0.0
 40
1.0
 40
1.0
 40
1.0
 40
2.0
 40
2.0
 40
2.0
 40
3.0
 40
3.0
 40
3.0
 40
4.0
 40
4.0
 40
4.0
 40
5.0
 40
5.0
 40
5.0
 40
5.0
 10
-169.9795730838386
 20
66.17826087178926
 30
0.0
 10
-180.6447344680485
 20
66.17826087178926
 30
0.0
 10
-251.8638623792873
 20
64.16391221270906
 30
0.0
 10
-272.3644333527021
 20
63.45284403546577
 30
0.0
 10
-292.8651765810047
 20
62.74177585822247
 30
0.0
 10
-332.0888203396138
 20
61.67551810213333
 30
0.0
 10
-351.5231335569393
 20
60.96444992489004
 30
0.0
 10
-370.957446774265
 20
60.25338174764675
 30
0.0
 10
-398.3309877748132
 20
60.84559405224036
 30
0.0
 10
-404.7300846053392
 20
66.88932904903255
 30
0.0
 10
-411.1290091809772
 20
72.93271953604895
 30
0.0
 10
-413.380725075581
 20
77.07992821708322
 30
0.0
 10
-417.646617374377
 20
91.06358001664972
 30
0.0
 10
-421.912681928061
 20
105.0468873064404
 30
0.0
 10
-452.1304956375824
 20
309.5794128635316
 30
0.0
 10
-452.1304956375824
 20
309.5794128635316
 30
0.0
  0
POLYLINE
  5
59
330
44
100
AcDbEntity
  8
\U+30EC\U+30A4\U+30E4\U+30FC 1
 62
   250
420
  2234132
370
    18
100
AcDb2dPolyline
 66
     1
 10
0.0
 20
0.0
 30
0.0
  0
VERTEX
  5
5A
330
59
100
AcDbEntity
  8
\U+30EC\U+30A4\U+30E4\U+30FC 1
 62
   250
420
  2234132
370
    18
100
AcDbVertex
100
AcDb2dVertex
 10
-424.2827369306507
 20
306.8539960272081
 30
0.0
  0
VERTEX
  5
5B
330
59
100
AcDbEntity
  8
\U+30EC\U+30A4\U+30E4\U+30FC 1
 62
   250
420
  2234132
370
    18
100
AcDbVertex
100
AcDb2dVertex
 10
-400.8195541402769
 20
166.6671115895585
 30
0.0
  0
SEQEND
  5
5C
330
59
100
AcDbEntity
  8
\U+30EC\U+30A4\U+30E4\U+30FC 1
370
    18
  0
SPLINE
  5
5D
330
44
100
AcDbEntity
  8
\U+30EC\U+30A4\U+30E4\U+30FC 1
 62
   250
420
  2234132
370
    18
100
AcDbSpline
210
0.0
220
0.0
230
1.0
 70
     8
 71
     3
 72
    11
 73
     7
 74
     0
 42
0.0000000001
 43
0.0000000001
 40
0.0
 40
0.0
 40
0.0
 40
0.0
 40
1.0
 40
1.0
 40
1.0
 40
2.0
 40
2.0
 40
2.0
 40
2.0
 10
-495.027819390394
 20
378.4284857721806
 30
0.0
 10
-491.5913343768272
 20
377.9544403206851
 30
0.0
 10
-462.5586342960446
 20
369.8965289197006
 30
0.0
 10
-448.6940106240157
 20
360.7718429979633
 30
0.0
 10
-434.8293869519867
 20
351.647157076226
 30
0.0
 10
-409.232999629883
 20
342.0487702127689
 30
0.0
 10
-406.2705600678117
 20
313.4899433285939
 30
0.0
  0
SPLINE
  5
5E
330
44
100
AcDbEntity
  8
\U+30EC\U+30A4\U+30E4\U+30FC 1
  6
AI-Linetype-3
 62
   250
420
  2234132
370
    18
100
AcDbSpline
210
0.0
220
0.0
230
1.0
 70
     8
 71
     3
 72
    14
 73
    10
 74
     0
 42
0.0000000001
 43
0.0000000001
 40
0.0
 40
0.0
 40
0.0
 40
0.0
 40
1.0
 40
1.0
 40
1.0
 40
2.0
 40
2.0
 40
2.0
 40
3.0
 40
3.0
 40
3.0
 40
3.0
 10
-497.2793630301098
 20
373.5702089139031
 30
0.0
 10
-497.2793630301098
 20
373.5702089139031
 30
0.0
 10
-486.0218170864184
 20
372.3849230302764
 30
0.0
 10
-471.683147962894
 20
366.8154057398676
 30
0.0
 10
-457.3444788393696
 20
361.2458884494588
 30
0.0
 10
-442.4132529014757
 20
352.7137593420909
 30
0.0
 10
-432.5778433122709
 20
346.3148347664529
 30
0.0
 10
-422.7422614681781
 20
339.9157379359269
 30
0.0
 10
-413.4994086933427
 20
329.8431333660865
 30
0.0
 10
-408.9961491590231
 20
312.0679792289952
 30
0.0
  0
SPLINE
  5
60
330
44
100
AcDbEntity
  8
\U+30EC\U+30A4\U+30E4\U+30FC 1
  6
AI-Linetype-4
 62
   250
420
  2234132
370
    18
100
AcDbSpline
210
0.0
220
0.0
230
1.0
 70
     8
 71
     3
 72
    14
 73
    10
 74
     0
 42
0.0000000001
 43
0.0000000001
 40
0.0
 40
0.0
 40
0.0
 40
0.0
 40
1.0
 40
1.0
 40
1.0
 40
2.0
 40
2.0
 40
2.0
 40
3.0
 40
3.0
 40
3.0
 40
3.0
 10
-491.2358002882056
 20
383.40544624822
 30
0.0
 10
-491.2358002882056
 20
383.40544624822
 30
0.0
 10
-473.816180239736
 20
379.4949157831577
 30
0.0
 10
-459.5960224790854
 20
372.1479003045286
 30
0.0
 10
-445.3758647184349
 20
364.8008848258995
 30
0.0
 10
-430.4448110354289
 20
356.8614847877889
 30
0.0
 10
-421.912681928061
 20
348.8032288770286
 30
0.0
 10
-413.380725075581
 20
340.7451452211562
 30
0.0
 10
-403.6636545943621
 20
329.7246220032126
 30
0.0
 10
-402.4785409656233
 20
315.3859528796881
 30
0.0
  0
SPLINE
  5
62
330
44
100
AcDbEntity
  8
\U+30EC\U+30A4\U+30E4\U+30FC 1
  6
AI-Linetype-5
 62
   250
420
  2234132
370
    18
100
AcDbSpline
210
0.0
220
0.0
230
1.0
 70
     8
 71
     3
 72
    14
 73
    10
 74
     0
 42
0.0000000001
 43
0.0000000001
 40
0.0
 40
0.0
 40
0.0
 40
0.0
 40
1.0
 40
1.0
 40
1.0
 40
2.0
 40
2.0
 40
2.0
 40
3.0
 40
3.0
 40
3.0
 40
3.0
 10
-175.1935562856257
 20
219.044655352729
 30
0.0
 10
-175.3122399033875
 20
242.9817113397105
 30
0.0
 10
-174.6011717261442
 20
325.9326029010242
 30
0.0
 10
-174.6011717261442
 20
373.9253984927489
 30
0.0
 10
-174.6011717261442
 20
421.9183663393616
 30
0.0
 10
-174.6011717261442
 20
473.466330562415
 30
0.0
 10
-174.6011717261442
 20
485.9089901348452
 30
0.0
 10
-174.6011717261442
 20
498.3514774523875
 30
0.0
 10
-175.1344728590767
 20
505.6392372495797
 30
0.0
 10
-175.400951170655
 20
509.2832894030637
 30
0.0
  0
ENDBLK
  5
47
330
44
100
AcDbEntity
  8
0
100
AcDbBlockEnd
  0
BLOCK
  5
66
330
64
100
AcDbEntity
  8
0
100
AcDbBlockBegin
  2
block 5
 70
     0
 71
     0
 10
0.0
 20
0.0
 30
0.0
  3
block 5
  1

  0
POLYLINE
  5
68
330
64
100
AcDbEntity
  8
\U+30EC\U+30A4\U+30E4\U+30FC 1
 62
   250
420
  2234132
370
    18
100
AcDb2dPolyline
 66
     1
 10
0.0
 20
0.0
 30
0.0
  0
VERTEX
  5
69
330
68
100
AcDbEntity
  8
\U+30EC\U+30A4\U+30E4\U+30FC 1
 62
   250
420
  2234132
370
    18
100
AcDbVertex
100
AcDb2dVertex
 10
-169.8018060395278
 20
509.3721729252191
 30
0.0
  0
VERTEX
  5
6A
330
68
100
AcDbEntity
  8
\U+30EC\U+30A4\U+30E4\U+30FC 1
 62
   250
420
  2234132
370
    18
100
AcDbVertex
100
AcDb2dVertex
 10
-169.8018060395278
 20
218.9852274164041
 30
0.0
  0
SEQEND
  5
6B
330
68
100
AcDbEntity
  8
\U+30EC\U+30A4\U+30E4\U+30FC 1
370
    18
  0
SPLINE
  5
6C
330
64
100
AcDbEntity
  8
\U+30EC\U+30A4\U+30E4\U+30FC 1
 62
   250
420
  2234132
370
    18
100
AcDbSpline
210
0.0
220
0.0
230
1.0
 70
     8
 71
     3
 72
    17
 73
    13
 74
     0
 42
0.0000000001
 43
0.0000000001
 40
0.0
 40
0.0
 40
0.0
 40
0.0
 40
1.0
 40
1.0
 40
1.0
 40
2.0
 40
2.0
 40
2.0
 40
3.0
 40
3.0
 40
3.0
 40
4.0
 40
4.0
 40
4.0
 40
4.0
 10
-169.7573642784501
 20
171.1553849486309
 30
0.0
 10
-162.2918374369471
 20
171.1553849486309
 30
0.0
 10
-129.6300713779276
 20
170.0445131765762
 30
0.0
 10
-118.6093759050961
 20
170.222280220887
 30
0.0
 10
-107.5888526871525
 20
170.4000472651979
 30
0.0
 10
-69.19444395888472
 20
170.7554090989316
 30
0.0
 10
-53.01919322059089
 20
170.7554090989316
 30
0.0
 10
-36.84377022740917
 20
170.7554090989316
 30
0.0
 10
14.17089286271171
 20
167.3781797668018
 30
0.0
 10
25.36935537985408
 20
166.3117497558247
 30
0.0
 10
36.56764564210854
 20
165.2451474899598
 30
0.0
 10
60.91966365403654
 20
163.8231833903611
 30
0.0
 10
64.47466003047721
 20
162.0456852021408
 30
0.0
  0
SPLINE
  5
6D
330
64
100
AcDbEntity
  8
\U+30EC\U+30A4\U+30E4\U+30FC 1
 62
   250
420
  2234132
370
    18
100
AcDbSpline
210
0.0
220
0.0
230
1.0
 70
     8
 71
     3
 72
    29
 73
    25
 74
     0
 42
0.0000000001
 43
0.0000000001
 40
0.0
 40
0.0
 40
0.0
 40
0.0
 40
1.0
 40
1.0
 40
1.0
 40
2.0
 40
2.0
 40
2.0
 40
3.0
 40
3.0
 40
3.0
 40
4.0
 40
4.0
 40
4.0
 40
5.0
 40
5.0
 40
5.0
 40
6.0
 40
6.0
 40
6.0
 40
7.0
 40
7.0
 40
7.0
 40
8.0
 40
8.0
 40
8.0
 40
8.0
 10
-169.8018060395278
 20
85.3457512677607
 30
0.0
 10
-161.6253832756694
 20
85.3457512677607
 30
0.0
 10
-123.3496581651635
 20
85.61274634400273
 30
0.0
 10
-91.35434626742169
 20
85.1387008925072
 30
0.0
 10
-59.35903436967989
 20
84.66431093123589
 30
0.0
 10
20.62941762956249
 20
79.92454543583219
 30
0.0
 10
32.24249766187555
 20
79.92454543583219
 30
0.0
 10
43.8557499490765
 20
79.92454543583219
 30
0.0
 10
55.58699683448764
 20
82.76847363502957
 30
0.0
 10
59.73489453507351
 20
91.77430368411721
 30
0.0
 10
62.90903535437151
 20
98.66656625869537
 30
0.0
 10
67.25450941137649
 20
115.710842906435
 30
0.0
 10
67.43744410232425
 20
126.1398428393367
 30
0.0
 10
67.67412231829623
 20
139.6491046776318
 30
0.0
 10
67.67446682807201
 20
153.6320674576467
 30
0.0
 10
66.25250272847333
 20
158.1351547370784
 30
0.0
 10
64.83053862887465
 20
162.6380697616223
 30
0.0
 10
60.80149680093845
 20
169.2740170630081
 30
0.0
 10
49.18841676862539
 20
174.0141270681875
 30
0.0
 10
37.57516448142444
 20
178.7542370733671
 30
0.0
 10
-12.19512929852068
 20
185.6272071005006
 30
0.0
 10
-42.53145437091602
 20
185.6272071005006
 30
0.0
 10
-72.86777944331136
 20
185.6272071005006
 30
0.0
 10
-162.7362550477242
 20
186.8419485699579
 30
0.0
 10
-169.8462478006055
 20
186.8419485699579
 30
0.0
  0
SPLINE
  5
6E
330
64
100
AcDbEntity
  8
\U+30EC\U+30A4\U+30E4\U+30FC 1
  6
AI-Linetype-6
 62
   250
420
  2234132
370
    18
100
AcDbSpline
210
0.0
220
0.0
230
1.0
 70
     8
 71
     3
 72
    17
 73
    13
 74
     0
 42
0.0000000001
 43
0.0000000001
 40
0.0
 40
0.0
 40
0.0
 40
0.0
 40
1.0
 40
1.0
 40
1.0
 40
2.0
 40
2.0
 40
2.0
 40
3.0
 40
3.0
 40
3.0
 40
4.0
 40
4.0
 40
4.0
 40
4.0
 10
-169.8906895616832
 20
167.8225973775788
 30
0.0
 10
-162.4251627201802
 20
167.8225973775788
 30
0.0
 10
-138.6064458411847
 20
167.8225973775788
 30
0.0
 10
-110.4329531412377
 20
167.4670632889572
 30
0.0
 10
-82.25928818640283
 20
167.1115292003355
 30
0.0
 10
-58.97387244033978
 20
167.7337138554234
 30
0.0
 10
-39.06568602640657
 20
167.2004127224909
 30
0.0
 10
-19.15749961247336
 20
166.6671115895585
 30
0.0
 10
8.927281820206124
 20
164.0898339568273
 30
0.0
 10
24.65828720261079
 20
162.8454646466515
 30
0.0
 10
40.38929258501545
 20
161.6012675913637
 30
0.0
 10
60.38636252110407
 20
160.3570705360758
 30
0.0
 10
65.89662413007589
 20
159.2904682702109
 30
0.0
  0
SPLINE
  5
70
330
64
100
AcDbEntity
  8
\U+30EC\U+30A4\U+30E4\U+30FC 1
  6
AI-Linetype-7
 62
   250
420
  2234132
370
    18
100
AcDbSpline
210
0.0
220
0.0
230
1.0
 70
     8
 71
     3
 72
    20
 73
    16
 74
     0
 42
0.0000000001
 43
0.0000000001
 40
0.0
 40
0.0
 40
0.0
 40
0.0
 40
1.0
 40
1.0
 40
1.0
 40
2.0
 40
2.0
 40
2.0
 40
3.0
 40
3.0
 40
3.0
 40
4.0
 40
4.0
 40
4.0
 40
5.0
 40
5.0
 40
5.0
 40
5.0
 10
-169.8018060395278
 20
174.5770560418385
 30
0.0
 10
-159.6699457882504
 20
174.5770560418385
 30
0.0
 10
-129.1856537671506
 20
174.7548230861493
 30
0.0
 10
-108.7441662202849
 20
174.6659395639939
 30
0.0
 10
-88.30285092830712
 20
174.5770560418385
 30
0.0
 10
-53.8189726651017
 20
175.0214736526156
 30
0.0
 10
-42.53179888069182
 20
174.6659395639939
 30
0.0
 10
-31.24462509628194
 20
174.3105777302601
 30
0.0
 10
-5.648410029066087
 20
174.3105777302601
 30
0.0
 10
9.904828309027753
 20
172.5329072871519
 30
0.0
 10
25.45823890200949
 20
170.7554090989316
 30
0.0
 10
44.74424066085481
 20
168.0003644218896
 30
0.0
 10
50.96557044706993
 20
167.3781797668018
 30
0.0
 10
57.18672797839715
 20
166.7559951117139
 30
0.0
 10
60.20859547679324
 20
166.7559951117139
 30
0.0
 10
62.07497718716899
 20
165.511798056426
 30
0.0
  0
SPLINE
  5
72
330
64
100
AcDbEntity
  8
\U+30EC\U+30A4\U+30E4\U+30FC 1
 62
   250
420
  2234132
370
    18
100
AcDbSpline
210
0.0
220
0.0
230
1.0
 70
     8
 71
     3
 72
    41
 73
    37
 74
     0
 42
0.0000000001
 43
0.0000000001
 40
0.0
 40
0.0
 40
0.0
 40
0.0
 40
1.0
 40
1.0
 40
1.0
 40
2.0
 40
2.0
 40
2.0
 40
3.0
 40
3.0
 40
3.0
 40
4.0
 40
4.0
 40
4.0
 40
5.0
 40
5.0
 40
5.0
 40
6.0
 40
6.0
 40
6.0
 40
7.0
 40
7.0
 40
7.0
 40
8.0
 40
8.0
 40
8.0
 40
9.0
 40
9.0
 40
9.0
 40
10.0
 40
10.0
 40
10.0
 40
11.0
 40
11.0
 40
11.0
 40
12.0
 40
12.0
 40
12.0
 40
12.0
 10
-169.7129225173724
 20
219.0150275120105
 30
0.0
 10
-157.0926681555192
 20
219.0150275120105
 30
0.0
 10
-119.231560560184
 20
222.2144897998296
 30
0.0
 10
-100.7453382458495
 20
229.146887763288
 30
0.0
 10
-82.25928818640283
 20
236.0791134718584
 30
0.0
 10
-59.77365188485058
 20
244.522359057071
 30
0.0
 10
-34.44408738410096
 20
256.6094845408796
 30
0.0
 10
-9.114522883351341
 20
268.6966100246881
 30
0.0
 10
15.29640630023779
 20
278.7693868494165
 30
0.0
 10
29.04269086428073
 20
285.4053341508023
 30
0.0
 10
42.7674435673364
 20
292.0309461589142
 30
0.0
 10
62.96364015383521
 20
301.3435621633484
 30
0.0
 10
76.47290199213037
 20
305.1355812655368
 30
0.0
 10
89.98199157553765
 20
308.9276003677252
 30
0.0
 10
127.6653321265621
 20
311.2680275295965
 30
0.0
 10
138.4192047780395
 20
309.0461117305991
 30
0.0
 10
148.2935439719093
 20
307.0059248383342
 30
0.0
 10
156.3126980231167
 20
316.9264283421607
 30
0.0
 10
158.6829252805944
 20
330.435517925568
 30
0.0
 10
161.0528080282962
 20
343.9446075089753
 30
0.0
 10
160.3417398510529
 20
364.3270116292919
 30
0.0
 10
157.4978116518555
 20
373.5702089139031
 30
0.0
 10
154.6535389428824
 20
382.8132339436264
 30
0.0
 10
145.8847316195425
 20
391.1081680703587
 30
0.0
 10
128.5834506790589
 20
393.2412003472006
 30
0.0
 10
111.2821697385753
 20
395.3742326240426
 30
0.0
 10
84.02696784601297
 20
392.5303044248452
 30
0.0
 10
71.46596916559676
 20
383.9981753174773
 30
0.0
 10
58.90497048518054
 20
375.4662184649973
 30
0.0
 10
47.76593590436301
 20
360.0611193304958
 30
0.0
 10
50.37284137781263
 20
344.8928706668542
 30
0.0
 10
52.97974685126223
 20
329.7246220032126
 30
0.0
 10
59.47823475210537
 20
317.6187207366231
 30
0.0
 10
62.45996686162121
 20
315.7416592231976
 30
0.0
 10
70.69598981669232
 20
310.5569593523532
 30
0.0
 10
82.16093064541302
 20
306.7353124094463
 30
0.0
 10
89.71534100907141
 20
307.6241476310004
 30
0.0
  0
SPLINE
  5
73
330
64
100
AcDbEntity
  8
\U+30EC\U+30A4\U+30E4\U+30FC 1
 62
   250
420
  2234132
370
    18
100
AcDbSpline
210
0.0
220
0.0
230
1.0
 70
     8
 71
     3
 72
    20
 73
    16
 74
     0
 42
0.0000000001
 43
0.0000000001
 40
0.0
 40
0.0
 40
0.0
 40
0.0
 40
1.0
 40
1.0
 40
1.0
 40
2.0
 40
2.0
 40
2.0
 40
3.0
 40
3.0
 40
3.0
 40
4.0
 40
4.0
 40
4.0
 40
5.0
 40
5.0
 40
5.0
 40
5.0
 10
-169.8018060395278
 20
509.4312563517681
 30
0.0
 10
-155.8188432595129
 20
509.4312563517681
 30
0.0
 10
-131.9408706990804
 20
507.2389683934892
 30
0.0
 10
-113.0402031244631
 20
505.6984929310166
 30
0.0
 10
-94.13867427540632
 20
504.1580174685441
 30
0.0
 10
-68.18744188423251
 20
500.6028488372155
 30
0.0
 10
-46.20530662000637
 20
494.5002026687621
 30
0.0
 10
-24.22334361066812
 20
488.3973842454209
 30
0.0
 10
-2.122869238455992
 20
474.7103553628149
 30
0.0
 10
9.31244374954624
 20
467.5411069284967
 30
0.0
 10
20.74775673754847
 20
460.3718584941784
 30
0.0
 10
48.00313088499868
 20
440.1673936730605
 30
0.0
 10
65.89662413007589
 20
423.4586695469463
 30
0.0
 10
83.7901173751531
 20
406.75011767572
 30
0.0
 10
92.67778057114266
 20
398.21816082324
 30
0.0
 10
97.06218423281261
 20
392.4116208070835
 30
0.0
  0
POLYLINE
  5
74
330
64
100
AcDbEntity
  8
\U+30EC\U+30A4\U+30E4\U+30FC 1
 62
   250
420
  2234132
370
    18
100
AcDb2dPolyline
 66
     1
 10
0.0
 20
0.0
 30
0.0
  0
VERTEX
  5
75
330
74
100
AcDbEntity
  8
\U+30EC\U+30A4\U+30E4\U+30FC 1
 62
   250
420
  2234132
370
    18
100
AcDbVertex
100
AcDb2dVertex
 10
-158.1890705169905
 20
186.6938093663655
 30
0.0
  0
VERTEX
  5
76
330
74
100
AcDbEntity
  8
\U+30EC\U+30A4\U+30E4\U+30FC 1
 62
   250
420
  2234132
370
    18
100
AcDbVertex
100
AcDb2dVertex
 10
-158.1890705169905
 20
219.4000171864627
 30
0.0
  0
SEQEND
  5
77
330
74
100
AcDbEntity
  8
\U+30EC\U+30A4\U+30E4\U+30FC 1
370
    18
  0
SPLINE
  5
78
330
64
100
AcDbEntity
  8
\U+30EC\U+30A4\U+30E4\U+30FC 1
 62
   250
420
  2234132
370
    18
100
AcDbSpline
210
0.0
220
0.0
230
1.0
 70
     8
 71
     3
 72
    20
 73
    16
 74
     0
 42
0.0000000001
 43
0.0000000001
 40
0.0
 40
0.0
 40
0.0
 40
0.0
 40
1.0
 40
1.0
 40
1.0
 40
2.0
 40
2.0
 40
2.0
 40
3.0
 40
3.0
 40
3.0
 40
4.0
 40
4.0
 40
4.0
 40
5.0
 40
5.0
 40
5.0
 40
5.0
 10
-169.8018060395278
 20
66.17826087178926
 30
0.0
 10
-159.1368169102058
 20
66.17826087178926
 30
0.0
 10
-87.91751674407911
 20
64.16391221270906
 30
0.0
 10
-67.41694577066438
 20
63.45284403546577
 30
0.0
 10
-46.91637479724966
 20
62.74177585822247
 30
0.0
 10
-7.692731038640552
 20
61.67551810213333
 30
0.0
 10
11.74158217868503
 20
60.96444992489004
 30
0.0
 10
31.17589539601061
 20
60.25338174764675
 30
0.0
 10
58.5494363965589
 20
60.84559405224036
 30
0.0
 10
64.94853322708484
 20
66.88932904903255
 30
0.0
 10
71.34763005761077
 20
72.93271953604895
 30
0.0
 10
73.59900144243873
 20
77.07992821708322
 30
0.0
 10
77.8650659961227
 20
91.06358001664972
 30
0.0
 10
82.13095829491876
 20
105.0468873064404
 30
0.0
 10
112.3487720044402
 20
309.5794128635316
 30
0.0
 10
112.3487720044402
 20
309.5794128635316
 30
0.0
  0
POLYLINE
  5
79
330
64
100
AcDbEntity
  8
\U+30EC\U+30A4\U+30E4\U+30FC 1
 62
   250
420
  2234132
370
    18
100
AcDb2dPolyline
 66
     1
 10
0.0
 20
0.0
 30
0.0
  0
VERTEX
  5
7A
330
79
100
AcDbEntity
  8
\U+30EC\U+30A4\U+30E4\U+30FC 1
 62
   250
420
  2234132
370
    18
100
AcDbVertex
100
AcDb2dVertex
 10
84.5011855523964
 20
306.8539960272081
 30
0.0
  0
VERTEX
  5
7B
330
79
100
AcDbEntity
  8
\U+30EC\U+30A4\U+30E4\U+30FC 1
 62
   250
420
  2234132
370
    18
100
AcDbVertex
100
AcDb2dVertex
 10
61.03817501691042
 20
166.6671115895585
 30
0.0
  0
SEQEND
  5
7C
330
79
100
AcDbEntity
  8
\U+30EC\U+30A4\U+30E4\U+30FC 1
370
    18
  0
SPLINE
  5
7D
330
64
100
AcDbEntity
  8
\U+30EC\U+30A4\U+30E4\U+30FC 1
 62
   250
420
  2234132
370
    18
100
AcDbSpline
210
0.0
220
0.0
230
1.0
 70
     8
 71
     3
 72
    11
 73
     7
 74
     0
 42
0.0000000001
 43
0.0000000001
 40
0.0
 40
0.0
 40
0.0
 40
0.0
 40
1.0
 40
1.0
 40
1.0
 40
2.0
 40
2.0
 40
2.0
 40
2.0
 10
155.2464402670276
 20
378.4284857721806
 30
0.0
 10
151.809610743685
 20
377.9544403206851
 30
0.0
 10
122.7770829177903
 20
369.8965289197006
 30
0.0
 10
108.9126315006492
 20
360.7718429979633
 30
0.0
 10
95.04783557373241
 20
351.647157076226
 30
0.0
 10
69.45144825162866
 20
342.0487702127689
 30
0.0
 10
66.48900868955741
 20
313.4899433285939
 30
0.0
  0
SPLINE
  5
7E
330
64
100
AcDbEntity
  8
\U+30EC\U+30A4\U+30E4\U+30FC 1
  6
AI-Linetype-8
 62
   250
420
  2234132
370
    18
100
AcDbSpline
210
0.0
220
0.0
230
1.0
 70
     8
 71
     3
 72
    14
 73
    10
 74
     0
 42
0.0000000001
 43
0.0000000001
 40
0.0
 40
0.0
 40
0.0
 40
0.0
 40
1.0
 40
1.0
 40
1.0
 40
2.0
 40
2.0
 40
2.0
 40
3.0
 40
3.0
 40
3.0
 40
3.0
 10
157.4978116518555
 20
373.5702089139031
 30
0.0
 10
157.4978116518555
 20
373.5702089139031
 30
0.0
 10
146.2402657081641
 20
372.3849230302764
 30
0.0
 10
131.9014243297518
 20
366.8154057398676
 30
0.0
 10
117.5629274611152
 20
361.2458884494588
 30
0.0
 10
102.6318737781093
 20
352.7137593420909
 30
0.0
 10
92.79611967912865
 20
346.3148347664529
 30
0.0
 10
82.96071008992382
 20
339.9157379359269
 30
0.0
 10
73.71768506020051
 20
329.8431333660865
 30
0.0
 10
69.21477003565668
 20
312.0679792289952
 30
0.0
  0
SPLINE
  5
80
330
64
100
AcDbEntity
  8
\U+30EC\U+30A4\U+30E4\U+30FC 1
  6
AI-Linetype-9
 62
   250
420
  2234132
370
    18
100
AcDbSpline
210
0.0
220
0.0
230
1.0
 70
     8
 71
     3
 72
    14
 73
    10
 74
     0
 42
0.0000000001
 43
0.0000000001
 40
0.0
 40
0.0
 40
0.0
 40
0.0
 40
1.0
 40
1.0
 40
1.0
 40
2.0
 40
2.0
 40
2.0
 40
3.0
 40
3.0
 40
3.0
 40
3.0
 10
151.4540766550633
 20
383.40544624822
 30
0.0
 10
151.4540766550633
 20
383.40544624822
 30
0.0
 10
134.0346288614817
 20
379.4949157831577
 30
0.0
 10
119.8142988459432
 20
372.1479003045286
 30
0.0
 10
105.5943133401805
 20
364.8008848258995
 30
0.0
 10
90.66308740228668
 20
356.8614847877889
 30
0.0
 10
82.13095829491876
 20
348.8032288770286
 30
0.0
 10
73.59900144243873
 20
340.7451452211562
 30
0.0
 10
63.88210321610779
 20
329.7246220032126
 30
0.0
 10
62.69716184225687
 20
315.3859528796881
 30
0.0
  0
SPLINE
  5
82
330
64
100
AcDbEntity
  8
\U+30EC\U+30A4\U+30E4\U+30FC 1
  6
AI-Linetype-10
 62
   250
420
  2234132
370
    18
100
AcDbSpline
210
0.0
220
0.0
230
1.0
 70
     8
 71
     3
 72
    14
 73
    10
 74
     0
 42
0.0000000001
 43
0.0000000001
 40
0.0
 40
0.0
 40
0.0
 40
0.0
 40
1.0
 40
1.0
 40
1.0
 40
2.0
 40
2.0
 40
2.0
 40
3.0
 40
3.0
 40
3.0
 40
3.0
 10
-164.5879950926286
 20
219.044655352729
 30
0.0
 10
-164.4693114748668
 20
242.9817113397105
 30
0.0
 10
-165.1803796521101
 20
325.9326029010242
 30
0.0
 10
-165.1803796521101
 20
373.9253984927489
 30
0.0
 10
-165.1803796521101
 20
421.9183663393616
 30
0.0
 10
-165.1803796521101
 20
473.466330562415
 30
0.0
 10
-165.1803796521101
 20
485.9089901348452
 30
0.0
 10
-165.1803796521101
 20
498.3514774523875
 30
0.0
 10
-164.6470785191776
 20
505.6392372495797
 30
0.0
 10
-164.3804279527114
 20
509.2832894030637
 30
0.0
  0
ENDBLK
  5
67
330
64
100
AcDbEntity
  8
0
100
AcDbBlockEnd
  0
BLOCK
  5
86
330
84
100
AcDbEntity
  8
0
100
AcDbBlockBegin
  2
block 6
 70
     0
 71
     0
 10
0.0
 20
0.0
 30
0.0
  3
block 6
  1

  0
POLYLINE
  5
88
330
84
100
AcDbEntity
  8
\U+30EC\U+30A4\U+30E4\U+30FC 1
 62
   250
420
  2234132
370
    18
100
AcDb2dPolyline
 66
     1
 10
0.0
 20
0.0
 30
0.0
  0
VERTEX
  5
89
330
88
100
AcDbEntity
  8
\U+30EC\U+30A4\U+30E4\U+30FC 1
 62
   250
420
  2234132
370
    18
100
AcDbVertex
100
AcDb2dVertex
 10
-186.6631479963197
 20
-189.326380818112
 30
0.0
  0
VERTEX
  5
8A
330
88
100
AcDbEntity
  8
\U+30EC\U+30A4\U+30E4\U+30FC 1
 62
   250
420
  2234132
370
    18
100
AcDbVertex
100
AcDb2dVertex
 10
-186.6631479963197
 20
-223.9885428902919
 30
0.0
  0
SEQEND
  5
8B
330
88
100
AcDbEntity
  8
\U+30EC\U+30A4\U+30E4\U+30FC 1
370
    18
  0
POLYLINE
  5
8C
330
84
100
AcDbEntity
  8
\U+30EC\U+30A4\U+30E4\U+30FC 1
 62
   250
420
  2234132
370
    18
100
AcDb2dPolyline
 66
     1
 10
0.0
 20
0.0
 30
0.0
  0
VERTEX
  5
8D
330
8C
100
AcDbEntity
  8
\U+30EC\U+30A4\U+30E4\U+30FC 1
 62
   250
420
  2234132
370
    18
100
AcDbVertex
100
AcDb2dVertex
 10
-159.0878965220427
 20
-189.3680665009833
 30
0.0
  0
VERTEX
  5
8E
330
8C
100
AcDbEntity
  8
\U+30EC\U+30A4\U+30E4\U+30FC 1
 62
   250
420
  2234132
370
    18
100
AcDbVertex
100
AcDb2dVertex
 10
-159.0878965220427
 20
-223.9885428902919
 30
0.0
  0
SEQEND
  5
8F
330
8C
100
AcDbEntity
  8
\U+30EC\U+30A4\U+30E4\U+30FC 1
370
    18
  0
INSERT
  5
91
330
84
100
AcDbEntity
  8
\U+30EC\U+30A4\U+30E4\U+30FC 1
100
AcDbBlockReference
  2
block 7
 10
0.0
 20
0.0
 30
0.0
  0
POLYLINE
  5
9C
330
84
100
AcDbEntity
  8
\U+30EC\U+30A4\U+30E4\U+30FC 1
 62
   250
420
  2234132
370
    18
100
AcDb2dPolyline
 66
     1
 10
0.0
 20
0.0
 30
0.0
  0
VERTEX
  5
9D
330
9C
100
AcDbEntity
  8
\U+30EC\U+30A4\U+30E4\U+30FC 1
 62
   250
420
  2234132
370
    18
100
AcDbVertex
100
AcDb2dVertex
 10
-125.2391220305176
 20
-162.672348484314
 30
0.0
  0
VERTEX
  5
9E
330
9C
100
AcDbEntity
  8
\U+30EC\U+30A4\U+30E4\U+30FC 1
 62
   250
420
  2234132
370
    18
100
AcDbVertex
100
AcDb2dVertex
 10
-37.93741651067411
 20
-162.672348484314
 30
0.0
  0
VERTEX
  5
9F
330
9C
100
AcDbEntity
  8
\U+30EC\U+30A4\U+30E4\U+30FC 1
 62
   250
420
  2234132
370
    18
100
AcDbVertex
100
AcDb2dVertex
 10
-37.93741651067411
 20
-189.3697890498623
 30
0.0
  0
VERTEX
  5
A0
330
9C
100
AcDbEntity
  8
\U+30EC\U+30A4\U+30E4\U+30FC 1
 62
   250
420
  2234132
370
    18
100
AcDbVertex
100
AcDb2dVertex
 10
-184.6596513951771
 20
-189.3697890498623
 30
0.0
  0
SEQEND
  5
A1
330
9C
100
AcDbEntity
  8
\U+30EC\U+30A4\U+30E4\U+30FC 1
370
    18
  0
POLYLINE
  5
A2
330
84
100
AcDbEntity
  8
\U+30EC\U+30A4\U+30E4\U+30FC 1
 62
   250
420
  2234132
370
    18
100
AcDb2dPolyline
 66
     1
 10
0.0
 20
0.0
 30
0.0
  0
VERTEX
  5
A3
330
A2
100
AcDbEntity
  8
\U+30EC\U+30A4\U+30E4\U+30FC 1
 62
   250
420
  2234132
370
    18
100
AcDbVertex
100
AcDb2dVertex
 10
-184.6596513951771
 20
-189.3697890498623
 30
0.0
  0
VERTEX
  5
A4
330
A2
100
AcDbEntity
  8
\U+30EC\U+30A4\U+30E4\U+30FC 1
 62
   250
420
  2234132
370
    18
100
AcDbVertex
100
AcDb2dVertex
 10
-308.5129828525546
 20
-189.3697890498623
 30
0.0
  0
VERTEX
  5
A5
330
A2
100
AcDbEntity
  8
\U+30EC\U+30A4\U+30E4\U+30FC 1
 62
   250
420
  2234132
370
    18
100
AcDbVertex
100
AcDb2dVertex
 10
-308.5129828525546
 20
-162.672348484314
 30
0.0
  0
VERTEX
  5
A6
330
A2
100
AcDbEntity
  8
\U+30EC\U+30A4\U+30E4\U+30FC 1
 62
   250
420
  2234132
370
    18
100
AcDbVertex
100
AcDb2dVertex
 10
-125.2391220305176
 20
-162.672348484314
 30
0.0
  0
SEQEND
  5
A7
330
A2
100
AcDbEntity
  8
\U+30EC\U+30A4\U+30E4\U+30FC 1
370
    18
  0
SPLINE
  5
A8
330
84
100
AcDbEntity
  8
\U+30EC\U+30A4\U+30E4\U+30FC 1
 62
   250
420
  2234132
370
    18
100
AcDbSpline
210
0.0
220
0.0
230
1.0
 70
     8
 71
     3
 72
    11
 73
     7
 74
     0
 42
0.0000000001
 43
0.0000000001
 40
0.0
 40
0.0
 40
0.0
 40
0.0
 40
1.0
 40
1.0
 40
1.0
 40
2.0
 40
2.0
 40
2.0
 40
2.0
 10
-159.0875520122669
 20
-223.9885428902919
 30
0.0
 10
-159.0875520122669
 20
-231.7589608833745
 30
0.0
 10
-165.2604781749827
 20
-238.0586666435833
 30
0.0
 10
-172.8753500042933
 20
-238.0586666435833
 30
0.0
 10
-180.490221833604
 20
-238.0586666435833
 30
0.0
 10
-186.6631479963197
 20
-231.7589608833745
 30
0.0
 10
-186.6631479963197
 20
-223.9885428902919
 30
0.0
  0
SPLINE
  5
A9
330
84
100
AcDbEntity
  8
\U+30EC\U+30A4\U+30E4\U+30FC 1
 62
   250
420
  2234132
370
    18
100
AcDbSpline
210
0.0
220
0.0
230
1.0
 70
     8
 71
     3
 72
    14
 73
    10
 74
     0
 42
0.0000000001
 43
0.0000000001
 40
0.0
 40
0.0
 40
0.0
 40
0.0
 40
1.0
 40
1.0
 40
1.0
 40
2.0
 40
2.0
 40
2.0
 40
3.0
 40
3.0
 40
3.0
 40
3.0
 10
-196.7333409977296
 20
-250.8337781496568
 30
0.0
 10
-196.7333409977296
 20
-250.8337781496568
 30
0.0
 10
-196.7333409977296
 20
-258.9645533682221
 30
0.0
 10
-196.7333409977296
 20
-260.3022848276387
 30
0.0
 10
-196.7333409977296
 20
-261.6400162870552
 30
0.0
 10
-195.417658163964
 20
-263.6023439699902
 30
0.0
 10
-193.4884034195055
 20
-263.6023439699902
 30
0.0
 10
-191.5588041652711
 20
-263.6023439699902
 30
0.0
 10
-172.9663005851035
 20
-263.6023439699902
 30
0.0
 10
-172.9663005851035
 20
-263.6023439699902
 30
0.0
  0
SPLINE
  5
AA
330
84
100
AcDbEntity
  8
\U+30EC\U+30A4\U+30E4\U+30FC 1
 62
   250
420
  2234132
370
    18
100
AcDbSpline
210
0.0
220
0.0
230
1.0
 70
     8
 71
     3
 72
    50
 73
    46
 74
     0
 42
0.0000000001
 43
0.0000000001
 40
0.0
 40
0.0
 40
0.0
 40
0.0
 40
1.0
 40
1.0
 40
1.0
 40
2.0
 40
2.0
 40
2.0
 40
3.0
 40
3.0
 40
3.0
 40
4.0
 40
4.0
 40
4.0
 40
5.0
 40
5.0
 40
5.0
 40
6.0
 40
6.0
 40
6.0
 40
7.0
 40
7.0
 40
7.0
 40
8.0
 40
8.0
 40
8.0
 40
9.0
 40
9.0
 40
9.0
 40
10.0
 40
10.0
 40
10.0
 40
11.0
 40
11.0
 40
11.0
 40
12.0
 40
12.0
 40
12.0
 40
13.0
 40
13.0
 40
13.0
 40
14.0
 40
14.0
 40
14.0
 40
15.0
 40
15.0
 40
15.0
 40
15.0
 10
-200.0657840590059
 20
-233.6196581824496
 30
0.0
 10
-202.1269860475944
 20
-233.6196581824496
 30
0.0
 10
-211.8177015309649
 20
-233.6196581824496
 30
0.0
 10
-213.2208898477826
 20
-233.6196581824496
 30
0.0
 10
-214.6244226743763
 20
-233.6196581824496
 30
0.0
 10
-217.6499075254182
 20
-231.7021167703681
 30
0.0
 10
-217.6499075254182
 20
-229.1151928639147
 30
0.0
 10
-217.6499075254182
 20
-226.5289579770129
 30
0.0
 10
-218.0006184771787
 20
-213.908186850496
 30
0.0
 10
-218.1322212115329
 20
-211.6340778204655
 30
0.0
 10
-218.263823945887
 20
-209.3596242806592
 30
0.0
 10
-220.0614759559914
 20
-206.9959427089217
 30
0.0
 10
-223.3942635270435
 20
-205.6582112495052
 30
0.0
 10
-226.7270510980957
 20
-204.3201352803128
 30
0.0
 10
-238.0400631156903
 20
-203.1608598847587
 30
0.0
 10
-247.2488094227218
 20
-203.606655534639
 30
0.0
 10
-256.4575557297534
 20
-204.0524511845192
 30
0.0
 10
-294.8703957310263
 20
-207.7986504865268
 30
0.0
 10
-304.5173584728706
 20
-209.4037215319611
 30
0.0
 10
-314.1643212147149
 20
-211.009481596947
 30
0.0
 10
-345.0492781050656
 20
-217.9013996617494
 30
0.0
 10
-358.8916808965557
 20
-221.3557991836576
 30
0.0
 10
-373.0696362096712
 20
-224.8939145810843
 30
0.0
 10
-397.5088151948757
 20
-232.9802480385719
 30
0.0
 10
-399.9644808767508
 20
-234.28835165727
 30
0.0
 10
-402.4201465586258
 20
-235.5967997857438
 30
0.0
 10
-405.3436565160321
 20
-236.786392041568
 30
0.0
 10
-405.8115007915633
 20
-239.4022547691883
 30
0.0
 10
-406.2793450670945
 20
-242.0188065163602
 30
0.0
 10
-405.8115007915633
 20
-250.8189642292975
 30
0.0
 10
-405.8115007915633
 20
-250.8189642292975
 30
0.0
 10
-405.8115007915633
 20
-250.8189642292975
 30
0.0
 10
-461.9397224838268
 20
-250.8189642292975
 30
0.0
 10
-461.9397224838268
 20
-250.8189642292975
 30
0.0
 10
-461.9397224838268
 20
-250.8189642292975
 30
0.0
 10
-461.9397224838268
 20
-247.2512209911524
 30
0.0
 10
-461.9397224838268
 20
-243.4454214979321
 30
0.0
 10
-461.9397224838268
 20
-239.6403110242635
 30
0.0
 10
-453.9884368584512
 20
-235.834856040819
 30
0.0
 10
-449.6617385842271
 20
-233.8132726764471
 30
0.0
 10
-445.335040310003
 20
-231.7913448022993
 30
0.0
 10
-405.12420378885
 20
-212.0984769982387
 30
0.0
 10
-370.3803928998063
 20
-199.4442884234697
 30
0.0
 10
-357.8996649971506
 20
-194.898826441615
 30
0.0
 10
-330.4587723354342
 20
-187.6940935003897
 30
0.0
 10
-308.5386488308513
 20
-183.1376072057096
 30
0.0
  0
SPLINE
  5
AB
330
84
100
AcDbEntity
  8
\U+30EC\U+30A4\U+30E4\U+30FC 1
 62
   250
420
  2234132
370
    18
100
AcDbSpline
210
0.0
220
0.0
230
1.0
 70
     8
 71
     3
 72
    14
 73
    10
 74
     0
 42
0.0000000001
 43
0.0000000001
 40
0.0
 40
0.0
 40
0.0
 40
0.0
 40
1.0
 40
1.0
 40
1.0
 40
2.0
 40
2.0
 40
2.0
 40
3.0
 40
3.0
 40
3.0
 40
3.0
 10
-173.0541505779315
 20
-250.7889918788033
 30
0.0
 10
-173.0541505779315
 20
-250.7889918788033
 30
0.0
 10
-200.7234532210008
 20
-250.7889918788033
 30
0.0
 10
-200.7234532210008
 20
-250.7889918788033
 30
0.0
 10
-200.7234532210008
 20
-250.7889918788033
 30
0.0
 10
-198.5750902591359
 20
-206.4605745173344
 30
0.0
 10
-198.0486793217194
 20
-198.9685204230952
 30
0.0
 10
-197.8590266901436
 20
-196.2665302515258
 30
0.0
 10
-197.3041936962238
 20
-192.7752681836074
 30
0.0
 10
-196.6558262981755
 20
-189.3405057189196
 30
0.0
  0
INSERT
  5
AD
330
84
100
AcDbEntity
  8
\U+30EC\U+30A4\U+30E4\U+30FC 1
100
AcDbBlockReference
  2
block 8
 10
0.0
 20
0.0
 30
0.0
  0
INSERT
  5
B3
330
84
100
AcDbEntity
  8
\U+30EC\U+30A4\U+30E4\U+30FC 1
100
AcDbBlockReference
  2
block 9
 10
0.0
 20
0.0
 30
0.0
  0
SPLINE
  5
B8
330
84
100
AcDbEntity
  8
\U+30EC\U+30A4\U+30E4\U+30FC 1
 62
   250
420
  2234132
370
    18
100
AcDbSpline
210
0.0
220
0.0
230
1.0
 70
     8
 71
     3
 72
    14
 73
    10
 74
     0
 42
0.0000000001
 43
0.0000000001
 40
0.0
 40
0.0
 40
0.0
 40
0.0
 40
1.0
 40
1.0
 40
1.0
 40
2.0
 40
2.0
 40
2.0
 40
3.0
 40
3.0
 40
3.0
 40
3.0
 10
-186.6667653489656
 20
-154.5512195394709
 30
0.0
 10
-186.6667653489656
 20
-154.5512195394709
 30
0.0
 10
-217.722943597887
 20
-154.5512195394709
 30
0.0
 10
-217.722943597887
 20
-154.5512195394709
 30
0.0
 10
-217.722943597887
 20
-154.5512195394709
 30
0.0
 10
-217.8903753489239
 20
-156.4505019334352
 30
0.0
 10
-218.4402129510946
 20
-158.4813870617536
 30
0.0
 10
-218.6772356768424
 20
-159.3564418922759
 30
0.0
 10
-219.8974893027124
 20
-160.8953670607573
 30
0.0
 10
-221.4631139788181
 20
-162.6761380918477
 30
0.0
  0
POLYLINE
  5
B9
330
84
100
AcDbEntity
  8
\U+30EC\U+30A4\U+30E4\U+30FC 1
 62
   250
420
  2234132
370
    18
100
AcDb2dPolyline
 66
     1
 10
0.0
 20
0.0
 30
0.0
  0
VERTEX
  5
BA
330
B9
100
AcDbEntity
  8
\U+30EC\U+30A4\U+30E4\U+30FC 1
 62
   250
420
  2234132
370
    18
100
AcDbVertex
100
AcDb2dVertex
 10
-217.0797438464755
 20
27.1029285716604
 30
0.0
  0
VERTEX
  5
BB
330
B9
100
AcDbEntity
  8
\U+30EC\U+30A4\U+30E4\U+30FC 1
 62
   250
420
  2234132
370
    18
100
AcDbVertex
100
AcDb2dVertex
 10
-217.0797438464755
 20
59.925063931313
 30
0.0
  0
VERTEX
  5
BC
330
B9
100
AcDbEntity
  8
\U+30EC\U+30A4\U+30E4\U+30FC 1
 62
   250
420
  2234132
370
    18
100
AcDbVertex
100
AcDb2dVertex
 10
-186.6962209347961
 20
59.925063931313
 30
0.0
  0
SEQEND
  5
BD
330
B9
100
AcDbEntity
  8
\U+30EC\U+30A4\U+30E4\U+30FC 1
370
    18
  0
POLYLINE
  5
BE
330
84
100
AcDbEntity
  8
\U+30EC\U+30A4\U+30E4\U+30FC 1
 62
   250
420
  2234132
370
    18
100
AcDb2dPolyline
 66
     1
 10
0.0
 20
0.0
 30
0.0
  0
VERTEX
  5
BF
330
BE
100
AcDbEntity
  8
\U+30EC\U+30A4\U+30E4\U+30FC 1
 62
   250
420
  2234132
370
    18
100
AcDbVertex
100
AcDb2dVertex
 10
-217.0797438464755
 20
-154.4916193482582
 30
0.0
  0
VERTEX
  5
C0
330
BE
100
AcDbEntity
  8
\U+30EC\U+30A4\U+30E4\U+30FC 1
 62
   250
420
  2234132
370
    18
100
AcDbVertex
100
AcDb2dVertex
 10
-217.0797438464755
 20
7.659141335500426
 30
0.0
  0
SEQEND
  5
C1
330
BE
100
AcDbEntity
  8
\U+30EC\U+30A4\U+30E4\U+30FC 1
370
    18
  0
SPLINE
  5
C2
330
84
100
AcDbEntity
  8
\U+30EC\U+30A4\U+30E4\U+30FC 1
 62
   250
420
  2234132
370
    18
100
AcDbSpline
210
0.0
220
0.0
230
1.0
 70
     8
 71
     3
 72
    11
 73
     7
 74
     0
 42
0.0000000001
 43
0.0000000001
 40
0.0
 40
0.0
 40
0.0
 40
0.0
 40
1.0
 40
1.0
 40
1.0
 40
2.0
 40
2.0
 40
2.0
 40
2.0
 10
-186.6741723091452
 20
5.397434657398577
 30
0.0
 10
-196.2944355433653
 20
4.984022926443175
 30
0.0
 10
-206.513629022807
 20
4.420749443016438
 30
0.0
 10
-206.9063701672147
 20
4.477593556022806
 30
0.0
 10
-207.5202865876834
 20
4.566821587954014
 30
0.0
 10
-209.7716579725114
 20
7.688769176218896
 30
0.0
 10
-209.7716579725114
 20
7.688769176218896
 30
0.0
  0
SPLINE
  5
C3
330
84
100
AcDbEntity
  8
\U+30EC\U+30A4\U+30E4\U+30FC 1
 62
   250
420
  2234132
370
    18
100
AcDbSpline
210
0.0
220
0.0
230
1.0
 70
     8
 71
     3
 72
    11
 73
     7
 74
     0
 42
0.0000000001
 43
0.0000000001
 40
0.0
 40
0.0
 40
0.0
 40
0.0
 40
1.0
 40
1.0
 40
1.0
 40
2.0
 40
2.0
 40
2.0
 40
2.0
 10
-186.6376542729108
 20
36.49805466739772
 30
0.0
 10
-196.6880379622124
 20
35.23611535865636
 30
0.0
 10
-207.565072858537
 20
33.37300649115068
 30
0.0
 10
-208.4852584696885
 20
33.19730650549462
 30
0.0
 10
-209.8881022767305
 20
32.9299669194768
 30
0.0
 10
-213.1333843647304
 20
32.12691463209593
 30
0.0
 10
-215.3258445778972
 20
27.04332838044766
 30
0.0
  0
SPLINE
  5
C4
330
84
100
AcDbEntity
  8
\U+30EC\U+30A4\U+30E4\U+30FC 1
 62
   250
420
  2234132
370
    18
100
AcDbSpline
210
0.0
220
0.0
230
1.0
 70
     8
 71
     3
 72
     8
 73
     4
 74
     0
 42
0.0000000001
 43
0.0000000001
 40
0.0
 40
0.0
 40
0.0
 40
0.0
 40
1.0
 40
1.0
 40
1.0
 40
1.0
 10
-206.9063701672147
 20
4.477593556022806
 30
0.0
 10
-206.5556592154542
 20
19.37247371257017
 30
0.0
 10
-207.8713420492197
 20
27.93491968020815
 30
0.0
 10
-210.8530741587356
 20
32.30537069595835
 30
0.0
  0
SPLINE
  5
C5
330
84
100
AcDbEntity
  8
\U+30EC\U+30A4\U+30E4\U+30FC 1
 62
   250
420
  2234132
370
    18
100
AcDbSpline
210
0.0
220
0.0
230
1.0
 70
    11
 71
     3
 72
    20
 73
    16
 74
     0
 42
0.0000000001
 43
0.0000000001
 40
0.0
 40
0.0
 40
0.0
 40
0.0
 40
1.0
 40
1.0
 40
1.0
 40
2.0
 40
2.0
 40
2.0
 40
3.0
 40
3.0
 40
3.0
 40
4.0
 40
4.0
 40
4.0
 40
5.0
 40
5.0
 40
5.0
 40
5.0
 10
-212.1687569925012
 20
27.04332838044766
 30
0.0
 10
-212.1687569925012
 20
27.04332838044766
 30
0.0
 10
-239.6186069083883
 20
27.04332838044766
 30
0.0
 10
-239.6186069083883
 20
27.04332838044766
 30
0.0
 10
-239.6186069083883
 20
27.04332838044766
 30
0.0
 10
-239.6186069083883
 20
7.688769176218896
 30
0.0
 10
-239.6186069083883
 20
7.688769176218896
 30
0.0
 10
-239.6186069083883
 20
7.688769176218896
 30
0.0
 10
-208.7484639383968
 20
7.688769176218896
 30
0.0
 10
-208.7484639383968
 20
7.688769176218896
 30
0.0
 10
-208.7484639383968
 20
7.688769176218896
 30
0.0
 10
-208.7484639383968
 20
11.43462396845064
 30
0.0
 10
-209.1866803732095
 20
17.32091799770398
 30
0.0
 10
-209.625241317798
 20
23.20790104650892
 30
0.0
 10
-212.1687569925012
 20
27.04332838044766
 30
0.0
 10
-212.1687569925012
 20
27.04332838044766
 30
0.0
  0
SPLINE
  5
C6
330
84
100
AcDbEntity
  8
\U+30EC\U+30A4\U+30E4\U+30FC 1
 62
   250
420
  2234132
370
    18
100
AcDbSpline
210
0.0
220
0.0
230
1.0
 70
    11
 71
     3
 72
    17
 73
    13
 74
     0
 42
0.0000000001
 43
0.0000000001
 40
0.0
 40
0.0
 40
0.0
 40
0.0
 40
1.0
 40
1.0
 40
1.0
 40
2.0
 40
2.0
 40
2.0
 40
3.0
 40
3.0
 40
3.0
 40
4.0
 40
4.0
 40
4.0
 40
4.0
 10
-220.2371759416474
 20
14.37777098307731
 30
0.0
 10
-220.2371759416474
 20
11.22516202476657
 30
0.0
 10
-222.7500302463047
 20
8.66958850791059
 30
0.0
 10
-225.8499292089186
 20
8.66958850791059
 30
0.0
 10
-228.9494836617567
 20
8.66958850791059
 30
0.0
 10
-231.4626824761898
 20
11.22516202476657
 30
0.0
 10
-231.4626824761898
 20
14.37777098307731
 30
0.0
 10
-231.4626824761898
 20
17.53072445116385
 30
0.0
 10
-228.9494836617567
 20
20.08595345824403
 30
0.0
 10
-225.8499292089186
 20
20.08595345824403
 30
0.0
 10
-222.7500302463047
 20
20.08595345824403
 30
0.0
 10
-220.2371759416474
 20
17.53072445116385
 30
0.0
 10
-220.2371759416474
 20
14.37777098307731
 30
0.0
  0
SPLINE
  5
C7
330
84
100
AcDbEntity
  8
\U+30EC\U+30A4\U+30E4\U+30FC 1
 62
   250
420
  2234132
370
    18
100
AcDbSpline
210
0.0
220
0.0
230
1.0
 70
     8
 71
     3
 72
    17
 73
    13
 74
     0
 42
0.0000000001
 43
0.0000000001
 40
0.0
 40
0.0
 40
0.0
 40
0.0
 40
1.0
 40
1.0
 40
1.0
 40
2.0
 40
2.0
 40
2.0
 40
3.0
 40
3.0
 40
3.0
 40
4.0
 40
4.0
 40
4.0
 40
4.0
 10
-239.6134392617514
 20
22.82721774425415
 30
0.0
 10
-240.3620590045564
 20
20.3670734352937
 30
0.0
 10
-241.1358279609946
 20
17.87764579539059
 30
0.0
 10
-241.9867671072112
 20
15.49294912732951
 30
0.0
 10
-246.2841820504926
 20
3.451643443701816
 30
0.0
 10
-252.4667544869306
 20
-14.2079276636098
 30
0.0
 10
-251.6337298490555
 20
-17.28508898102118
 30
0.0
 10
-250.8007052111803
 20
-20.36225029843256
 30
0.0
 10
-249.8360778389511
 20
-23.97443529765539
 30
0.0
 10
-237.163285736289
 20
-23.97443529765539
 30
0.0
 10
-224.4904936336269
 20
-23.97443529765539
 30
0.0
 10
-217.1234965880017
 20
-23.97443529765539
 30
0.0
 10
-217.1234965880017
 20
-23.97443529765539
 30
0.0
  0
SPLINE
  5
C8
330
84
100
AcDbEntity
  8
\U+30EC\U+30A4\U+30E4\U+30FC 1
 62
   250
420
  2234132
370
    18
100
AcDbSpline
210
0.0
220
0.0
230
1.0
 70
     8
 71
     3
 72
    11
 73
     7
 74
     0
 42
0.0000000001
 43
0.0000000001
 40
0.0
 40
0.0
 40
0.0
 40
0.0
 40
1.0
 40
1.0
 40
1.0
 40
2.0
 40
2.0
 40
2.0
 40
2.0
 10
-220.8069951108143
 20
27.04332838044766
 30
0.0
 10
-221.2893087969289
 20
31.45822115727557
 30
0.0
 10
-221.2455560554028
 20
42.25033439386635
 30
0.0
 10
-228.3055948907937
 20
42.25033439386635
 30
0.0
 10
-233.150780377591
 20
42.25033439386635
 30
0.0
 10
-235.7649205563324
 20
35.31879770484743
 30
0.0
 10
-238.317737994982
 20
27.07812386780308
 30
0.0
  0
SPLINE
  5
C9
330
84
100
AcDbEntity
  8
\U+30EC\U+30A4\U+30E4\U+30FC 1
 62
   250
420
  2234132
370
    18
100
AcDbSpline
210
0.0
220
0.0
230
1.0
 70
     8
 71
     3
 72
    14
 73
    10
 74
     0
 42
0.0000000001
 43
0.0000000001
 40
0.0
 40
0.0
 40
0.0
 40
0.0
 40
1.0
 40
1.0
 40
1.0
 40
2.0
 40
2.0
 40
2.0
 40
3.0
 40
3.0
 40
3.0
 40
3.0
 10
-232.9974735273617
 20
7.599196634511893
 30
0.0
 10
-232.9974735273617
 20
7.599196634511893
 30
0.0
 10
-238.9171850048673
 20
-8.767429284236702
 30
0.0
 10
-239.5311014253361
 20
-10.55130090330926
 30
0.0
 10
-240.1450178458049
 20
-12.33482801260603
 30
0.0
 10
-240.0575123627526
 20
-12.78096817226207
 30
0.0
 10
-238.2157631013463
 20
-12.78096817226207
 30
0.0
 10
-236.37401383994
 20
-12.78096817226207
 30
0.0
 10
-217.0359911049494
 20
-12.78096817226207
 30
0.0
 10
-217.0359911049494
 20
-12.78096817226207
 30
0.0
  0
SPLINE
  5
CA
330
84
100
AcDbEntity
  8
\U+30EC\U+30A4\U+30E4\U+30FC 1
 62
   250
420
  2234132
370
    18
100
AcDbSpline
210
0.0
220
0.0
230
1.0
 70
     8
 71
     3
 72
    11
 73
     7
 74
     0
 42
0.0000000001
 43
0.0000000001
 40
0.0
 40
0.0
 40
0.0
 40
0.0
 40
1.0
 40
1.0
 40
1.0
 40
2.0
 40
2.0
 40
2.0
 40
2.0
 10
-200.2411395348862
 20
-240.8888144517488
 30
0.0
 10
-199.6568509551359
 20
-239.2833988965386
 30
0.0
 10
-198.0783071624379
 20
-237.8564394051909
 30
0.0
 10
-195.0376638812609
 20
-237.8564394051909
 30
0.0
 10
-191.9973651098597
 20
-237.8564394051909
 30
0.0
 10
-172.9373617639366
 20
-237.8564394051909
 30
0.0
 10
-172.9373617639366
 20
-237.8564394051909
 30
0.0
  0
SPLINE
  5
CB
330
84
100
AcDbEntity
  8
\U+30EC\U+30A4\U+30E4\U+30FC 1
 62
   250
420
  2234132
370
    18
100
AcDbSpline
210
0.0
220
0.0
230
1.0
 70
     8
 71
     3
 72
    23
 73
    19
 74
     0
 42
0.0000000001
 43
0.0000000001
 40
0.0
 40
0.0
 40
0.0
 40
0.0
 40
1.0
 40
1.0
 40
1.0
 40
2.0
 40
2.0
 40
2.0
 40
3.0
 40
3.0
 40
3.0
 40
4.0
 40
4.0
 40
4.0
 40
5.0
 40
5.0
 40
5.0
 40
6.0
 40
6.0
 40
6.0
 40
6.0
 10
-284.5042688322075
 20
-189.3666884618801
 30
0.0
 10
-289.151361197922
 20
-190.1142746753578
 30
0.0
 10
-293.6332611261422
 20
-190.9045801010342
 30
0.0
 10
-297.7057111858288
 20
-191.714522583931
 30
0.0
 10
-313.5504047942461
 20
-194.8657535031386
 30
0.0
 10
-345.2980141631905
 20
-204.0820790252377
 30
0.0
 10
-355.0617657190297
 20
-207.2932546454338
 30
0.0
 10
-364.8258617846447
 20
-210.5037412460783
 30
0.0
 10
-391.1949845338593
 20
-220.7315474699149
 30
0.0
 10
-399.3216256351151
 20
-224.4774022621467
 30
0.0
 10
-407.448266736371
 20
-228.2236015641542
 30
0.0
 10
-415.8677411470535
 20
-232.2671128026739
 30
0.0
 10
-416.5691630505745
 20
-232.6829361020598
 30
0.0
 10
-417.2705849540955
 20
-233.0991039112216
 30
0.0
 10
-418.2648401670432
 20
-236.8456477230049
 30
0.0
 10
-418.2069625247095
 20
-238.7480307049514
 30
0.0
 10
-418.1477068432725
 20
-240.6511027064494
 30
0.0
 10
-415.4584635334077
 20
-250.7593640380848
 30
0.0
 10
-415.4584635334077
 20
-250.7593640380848
 30
0.0
  0
SPLINE
  5
CC
330
84
100
AcDbEntity
  8
\U+30EC\U+30A4\U+30E4\U+30FC 1
 62
   250
420
  2234132
370
    18
100
AcDbSpline
210
0.0
220
0.0
230
1.0
 70
     8
 71
     3
 72
    20
 73
    16
 74
     0
 42
0.0000000001
 43
0.0000000001
 40
0.0
 40
0.0
 40
0.0
 40
0.0
 40
1.0
 40
1.0
 40
1.0
 40
2.0
 40
2.0
 40
2.0
 40
3.0
 40
3.0
 40
3.0
 40
4.0
 40
4.0
 40
4.0
 40
5.0
 40
5.0
 40
5.0
 40
5.0
 10
-450.4213826398577
 20
-250.7593640380848
 30
0.0
 10
-451.0649269010449
 20
-249.6893166744619
 30
0.0
 10
-451.1231490531545
 20
-245.7047166076034
 30
0.0
 10
-451.0063602391596
 20
-243.6834777530073
 30
0.0
 10
-450.8895714251647
 20
-241.6618943886354
 30
0.0
 10
-450.0713607076488
 20
-240.5915025152367
 30
0.0
 10
-448.9599721709303
 20
-239.6995667057004
 30
0.0
 10
-447.8492726537635
 20
-238.8076308961641
 30
0.0
 10
-410.4885655077721
 20
-221.088115087864
 30
0.0
 10
-399.730903248761
 20
-216.5688358489698
 30
0.0
 10
-388.972896479974
 20
-212.0499011198515
 30
0.0
 10
-359.1545418554882
 20
-200.633536169518
 30
0.0
 10
-344.2455367981332
 20
-196.2331128032736
 30
0.0
 10
-333.6022517846864
 20
-193.0918726675641
 30
0.0
 10
-321.1415054490268
 20
-189.6174915786598
 30
0.0
 10
-308.5221123616132
 20
-186.826617884935
 30
0.0
  0
POLYLINE
  5
CD
330
84
100
AcDbEntity
  8
\U+30EC\U+30A4\U+30E4\U+30FC 1
 62
   250
420
  2234132
370
    18
100
AcDb2dPolyline
 66
     1
 10
0.0
 20
0.0
 30
0.0
  0
VERTEX
  5
CE
330
CD
100
AcDbEntity
  8
\U+30EC\U+30A4\U+30E4\U+30FC 1
 62
   250
420
  2234132
370
    18
100
AcDbVertex
100
AcDb2dVertex
 10
-233.0412262688878
 20
-204.0820790252377
 30
0.0
  0
VERTEX
  5
CF
330
CD
100
AcDbEntity
  8
\U+30EC\U+30A4\U+30E4\U+30FC 1
 62
   250
420
  2234132
370
    18
100
AcDbVertex
100
AcDb2dVertex
 10
-232.6905153171273
 20
-189.4049290469935
 30
0.0
  0
SEQEND
  5
D0
330
CD
100
AcDbEntity
  8
\U+30EC\U+30A4\U+30E4\U+30FC 1
370
    18
  0
POLYLINE
  5
D1
330
84
100
AcDbEntity
  8
\U+30EC\U+30A4\U+30E4\U+30FC 1
 62
   250
420
  2234132
370
    18
100
AcDb2dPolyline
 66
     1
 10
0.0
 20
0.0
 30
0.0
  0
VERTEX
  5
D2
330
D1
100
AcDbEntity
  8
\U+30EC\U+30A4\U+30E4\U+30FC 1
 62
   250
420
  2234132
370
    18
100
AcDbVertex
100
AcDb2dVertex
 10
-240.8171564183832
 20
-203.4874551522135
 30
0.0
  0
VERTEX
  5
D3
330
D1
100
AcDbEntity
  8
\U+30EC\U+30A4\U+30E4\U+30FC 1
 62
   250
420
  2234132
370
    18
100
AcDbVertex
100
AcDb2dVertex
 10
-240.7007121141641
 20
-189.3608317956916
 30
0.0
  0
SEQEND
  5
D4
330
D1
100
AcDbEntity
  8
\U+30EC\U+30A4\U+30E4\U+30FC 1
370
    18
  0
POLYLINE
  5
D5
330
84
100
AcDbEntity
  8
\U+30EC\U+30A4\U+30E4\U+30FC 1
 62
   250
420
  2234132
370
    18
100
AcDb2dPolyline
 66
     1
 10
0.0
 20
0.0
 30
0.0
  0
VERTEX
  5
D6
330
D5
100
AcDbEntity
  8
\U+30EC\U+30A4\U+30E4\U+30FC 1
 62
   250
420
  2234132
370
    18
100
AcDbVertex
100
AcDb2dVertex
 10
-307.9376515269749
 20
-210.0283177554795
 30
0.0
  0
VERTEX
  5
D7
330
D5
100
AcDbEntity
  8
\U+30EC\U+30A4\U+30E4\U+30FC 1
 62
   250
420
  2234132
370
    18
100
AcDbVertex
100
AcDb2dVertex
 10
-307.6448182175482
 20
-193.9142175023896
 30
0.0
  0
SEQEND
  5
D8
330
D5
100
AcDbEntity
  8
\U+30EC\U+30A4\U+30E4\U+30FC 1
370
    18
  0
POLYLINE
  5
D9
330
84
100
AcDbEntity
  8
\U+30EC\U+30A4\U+30E4\U+30FC 1
 62
   250
420
  2234132
370
    18
100
AcDb2dPolyline
 66
     1
 10
0.0
 20
0.0
 30
0.0
  0
VERTEX
  5
DA
330
D9
100
AcDbEntity
  8
\U+30EC\U+30A4\U+30E4\U+30FC 1
 62
   250
420
  2234132
370
    18
100
AcDbVertex
100
AcDb2dVertex
 10
-316.4739147516524
 20
-211.8121893745521
 30
0.0
  0
VERTEX
  5
DB
330
D9
100
AcDbEntity
  8
\U+30EC\U+30A4\U+30E4\U+30FC 1
 62
   250
420
  2234132
370
    18
100
AcDbVertex
100
AcDb2dVertex
 10
-316.6489257177569
 20
-196.2331128032736
 30
0.0
  0
SEQEND
  5
DC
330
D9
100
AcDbEntity
  8
\U+30EC\U+30A4\U+30E4\U+30FC 1
370
    18
  0
POLYLINE
  5
DD
330
84
100
AcDbEntity
  8
\U+30EC\U+30A4\U+30E4\U+30FC 1
 62
   250
420
  2234132
370
    18
100
AcDb2dPolyline
 66
     1
 10
0.0
 20
0.0
 30
0.0
  0
VERTEX
  5
DE
330
DD
100
AcDbEntity
  8
\U+30EC\U+30A4\U+30E4\U+30FC 1
 62
   250
420
  2234132
370
    18
100
AcDbVertex
100
AcDb2dVertex
 10
-389.4403962457294
 20
-230.4232964826128
 30
0.0
  0
VERTEX
  5
DF
330
DD
100
AcDbEntity
  8
\U+30EC\U+30A4\U+30E4\U+30FC 1
 62
   250
420
  2234132
370
    18
100
AcDbVertex
100
AcDb2dVertex
 10
-389.4403962457294
 20
-220.2557794695404
 30
0.0
  0
SEQEND
  5
E0
330
DD
100
AcDbEntity
  8
\U+30EC\U+30A4\U+30E4\U+30FC 1
370
    18
  0
POLYLINE
  5
E1
330
84
100
AcDbEntity
  8
\U+30EC\U+30A4\U+30E4\U+30FC 1
 62
   250
420
  2234132
370
    18
100
AcDb2dPolyline
 66
     1
 10
0.0
 20
0.0
 30
0.0
  0
VERTEX
  5
E2
330
E1
100
AcDbEntity
  8
\U+30EC\U+30A4\U+30E4\U+30FC 1
 62
   250
420
  2234132
370
    18
100
AcDbVertex
100
AcDb2dVertex
 10
-398.2691482700578
 20
-233.4560160389464
 30
0.0
  0
VERTEX
  5
E3
330
E1
100
AcDbEntity
  8
\U+30EC\U+30A4\U+30E4\U+30FC 1
 62
   250
420
  2234132
370
    18
100
AcDbVertex
100
AcDb2dVertex
 10
-398.2691482700578
 20
-224.0608899432091
 30
0.0
  0
SEQEND
  5
E4
330
E1
100
AcDbEntity
  8
\U+30EC\U+30A4\U+30E4\U+30FC 1
370
    18
  0
SPLINE
  5
E5
330
84
100
AcDbEntity
  8
\U+30EC\U+30A4\U+30E4\U+30FC 1
 62
   250
420
  2234132
370
    18
100
AcDbSpline
210
0.0
220
0.0
230
1.0
 70
     8
 71
     3
 72
    29
 73
    25
 74
     0
 42
0.0000000001
 43
0.0000000001
 40
0.0
 40
0.0
 40
0.0
 40
0.0
 40
1.0
 40
1.0
 40
1.0
 40
2.0
 40
2.0
 40
2.0
 40
3.0
 40
3.0
 40
3.0
 40
4.0
 40
4.0
 40
4.0
 40
5.0
 40
5.0
 40
5.0
 40
6.0
 40
6.0
 40
6.0
 40
7.0
 40
7.0
 40
7.0
 40
8.0
 40
8.0
 40
8.0
 40
8.0
 10
-221.5228864249187
 20
-206.6986307724096
 30
0.0
 10
-224.7974518438613
 20
-207.0548538805828
 30
0.0
 10
-255.0836507438783
 20
-214.6664528670234
 30
0.0
 10
-261.8071035283164
 20
-217.5207163594946
 30
0.0
 10
-268.5305563127544
 20
-220.3746353421901
 30
0.0
 10
-278.1141292558522
 20
-225.1450622076397
 30
0.0
 10
-280.2824737847133
 20
-227.0942985190944
 30
0.0
 10
-285.3109384722342
 20
-231.6132332482127
 30
0.0
 10
-289.5787255747971
 20
-236.3099350216419
 30
0.0
 10
-289.5787255747971
 20
-237.8564394051909
 30
0.0
 10
-289.5787255747971
 20
-239.4022547691883
 30
0.0
 10
-289.5787255747971
 20
-250.9970757833842
 30
0.0
 10
-289.5787255747971
 20
-250.9970757833842
 30
0.0
 10
-289.5787255747971
 20
-250.9970757833842
 30
0.0
 10
-347.4026243835293
 20
-250.9970757833842
 30
0.0
 10
-347.4026243835293
 20
-250.9970757833842
 30
0.0
 10
-347.4026243835293
 20
-250.9970757833842
 30
0.0
 10
-347.4026243835293
 20
-245.9431173724544
 30
0.0
 10
-347.4026243835293
 20
-243.3861658164952
 30
0.0
 10
-347.4026243835293
 20
-240.829214260536
 30
0.0
 10
-338.9834944826225
 20
-233.7536724852343
 30
0.0
 10
-330.7979422097055
 20
-227.2128098819683
 30
0.0
 10
-322.6127344465643
 20
-220.6716027689264
 30
0.0
 10
-309.2826176916832
 20
-211.4556217566031
 30
0.0
 10
-304.7219972796935
 20
-209.4932940736681
 30
0.0
  0
SPLINE
  5
E6
330
84
100
AcDbEntity
  8
\U+30EC\U+30A4\U+30E4\U+30FC 1
 62
   250
420
  2234132
370
    18
100
AcDbSpline
210
0.0
220
0.0
230
1.0
 70
     8
 71
     3
 72
    11
 73
     7
 74
     0
 42
0.0000000001
 43
0.0000000001
 40
0.0
 40
0.0
 40
0.0
 40
0.0
 40
1.0
 40
1.0
 40
1.0
 40
2.0
 40
2.0
 40
2.0
 40
2.0
 10
-337.2878173661538
 20
-250.4623966113485
 30
0.0
 10
-337.2878173661538
 20
-246.8946533732034
 30
0.0
 10
-335.06641833182
 20
-241.0669260058354
 30
0.0
 10
-332.7271969541641
 20
-238.2130070231399
 30
0.0
 10
-330.3890091058355
 20
-235.3587435306687
 30
0.0
 10
-302.3138739468783
 20
-211.9238105419101
 30
0.0
 10
-290.7373119507996
 20
-207.6425875580911
 30
0.0
  0
SPLINE
  5
E7
330
84
100
AcDbEntity
  8
\U+30EC\U+30A4\U+30E4\U+30FC 1
 62
   250
420
  2234132
370
    18
100
AcDbSpline
210
0.0
220
0.0
230
1.0
 70
     8
 71
     3
 72
    11
 73
     7
 74
     0
 42
0.0000000001
 43
0.0000000001
 40
0.0
 40
0.0
 40
0.0
 40
0.0
 40
1.0
 40
1.0
 40
1.0
 40
2.0
 40
2.0
 40
2.0
 40
2.0
 10
-330.5643645817157
 20
-236.0722232763425
 30
0.0
 10
-327.1440715276113
 20
-234.28835165727
 30
0.0
 10
-316.7953423724703
 20
-231.2559766107121
 30
0.0
 10
-315.3921540556524
 20
-230.096701215158
 30
0.0
 10
-313.9889657388347
 20
-228.9370813098281
 30
0.0
 10
-292.9407964767919
 20
-211.009481596947
 30
0.0
 10
-279.7856906880152
 20
-206.5501470590414
 30
0.0
  0
POLYLINE
  5
E8
330
84
100
AcDbEntity
  8
\U+30EC\U+30A4\U+30E4\U+30FC 1
 62
   250
420
  2234132
370
    18
100
AcDb2dPolyline
 66
     1
 10
0.0
 20
0.0
 30
0.0
  0
VERTEX
  5
E9
330
E8
100
AcDbEntity
  8
\U+30EC\U+30A4\U+30E4\U+30FC 1
 62
   250
420
  2234132
370
    18
100
AcDbVertex
100
AcDb2dVertex
 10
-255.2297228888159
 20
-215.290704580766
 30
0.0
  0
VERTEX
  5
EA
330
E8
100
AcDbEntity
  8
\U+30EC\U+30A4\U+30E4\U+30FC 1
 62
   250
420
  2234132
370
    18
100
AcDbVertex
100
AcDb2dVertex
 10
-255.2297228888159
 20
-204.1416792164504
 30
0.0
  0
SEQEND
  5
EB
330
E8
100
AcDbEntity
  8
\U+30EC\U+30A4\U+30E4\U+30FC 1
370
    18
  0
POLYLINE
  5
EC
330
84
100
AcDbEntity
  8
\U+30EC\U+30A4\U+30E4\U+30FC 1
 62
   250
420
  2234132
370
    18
100
AcDb2dPolyline
 66
     1
 10
0.0
 20
0.0
 30
0.0
  0
VERTEX
  5
ED
330
EC
100
AcDbEntity
  8
\U+30EC\U+30A4\U+30E4\U+30FC 1
 62
   250
420
  2234132
370
    18
100
AcDbVertex
100
AcDb2dVertex
 10
-263.3856473210144
 20
-218.1449680732373
 30
0.0
  0
VERTEX
  5
EE
330
EC
100
AcDbEntity
  8
\U+30EC\U+30A4\U+30E4\U+30FC 1
 62
   250
420
  2234132
370
    18
100
AcDbVertex
100
AcDb2dVertex
 10
-263.3856473210144
 20
-204.8555034719001
 30
0.0
  0
SEQEND
  5
EF
330
EC
100
AcDbEntity
  8
\U+30EC\U+30A4\U+30E4\U+30FC 1
370
    18
  0
POLYLINE
  5
F0
330
84
100
AcDbEntity
  8
\U+30EC\U+30A4\U+30E4\U+30FC 1
 62
   250
420
  2234132
370
    18
100
AcDb2dPolyline
 66
     1
 10
0.0
 20
0.0
 30
0.0
  0
VERTEX
  5
F1
330
F0
100
AcDbEntity
  8
\U+30EC\U+30A4\U+30E4\U+30FC 1
 62
   250
420
  2234132
370
    18
100
AcDbVertex
100
AcDb2dVertex
 10
-305.4819858450999
 20
-222.0692789293315
 30
0.0
  0
VERTEX
  5
F2
330
F0
100
AcDbEntity
  8
\U+30EC\U+30A4\U+30E4\U+30FC 1
 62
   250
420
  2234132
370
    18
100
AcDbVertex
100
AcDb2dVertex
 10
-305.4819858450999
 20
-236.1617958180495
 30
0.0
  0
VERTEX
  5
F3
330
F0
100
AcDbEntity
  8
\U+30EC\U+30A4\U+30E4\U+30FC 1
 62
   250
420
  2234132
370
    18
100
AcDbVertex
100
AcDb2dVertex
 10
-296.9750059513651
 20
-234.28835165727
 30
0.0
  0
VERTEX
  5
F4
330
F0
100
AcDbEntity
  8
\U+30EC\U+30A4\U+30E4\U+30FC 1
 62
   250
420
  2234132
370
    18
100
AcDbVertex
100
AcDb2dVertex
 10
-296.9750059513651
 20
-215.9149562945087
 30
0.0
  0
SEQEND
  5
F5
330
F0
100
AcDbEntity
  8
\U+30EC\U+30A4\U+30E4\U+30FC 1
370
    18
  0
SPLINE
  5
F6
330
84
100
AcDbEntity
  8
\U+30EC\U+30A4\U+30E4\U+30FC 1
 62
   250
420
  2234132
370
    18
100
AcDbSpline
210
0.0
220
0.0
230
1.0
 70
     8
 71
     3
 72
    14
 73
    10
 74
     0
 42
0.0000000001
 43
0.0000000001
 40
0.0
 40
0.0
 40
0.0
 40
0.0
 40
1.0
 40
1.0
 40
1.0
 40
2.0
 40
2.0
 40
2.0
 40
3.0
 40
3.0
 40
3.0
 40
3.0
 10
-149.1410380203679
 20
-250.8337781496568
 30
0.0
 10
-149.1410380203679
 20
-250.8337781496568
 30
0.0
 10
-149.1410380203679
 20
-258.9645533682221
 30
0.0
 10
-149.1410380203679
 20
-260.3022848276387
 30
0.0
 10
-149.1410380203679
 20
-261.6400162870552
 30
0.0
 10
-150.4563763443576
 20
-263.6023439699902
 30
0.0
 10
-152.385975598592
 20
-263.6023439699902
 30
0.0
 10
-154.3152303430505
 20
-263.6023439699902
 30
0.0
 10
-172.9077339232182
 20
-263.6023439699902
 30
0.0
 10
-172.9077339232182
 20
-263.6023439699902
 30
0.0
  0
SPLINE
  5
F7
330
84
100
AcDbEntity
  8
\U+30EC\U+30A4\U+30E4\U+30FC 1
 62
   250
420
  2234132
370
    18
100
AcDbSpline
210
0.0
220
0.0
230
1.0
 70
     8
 71
     3
 72
    50
 73
    46
 74
     0
 42
0.0000000001
 43
0.0000000001
 40
0.0
 40
0.0
 40
0.0
 40
0.0
 40
1.0
 40
1.0
 40
1.0
 40
2.0
 40
2.0
 40
2.0
 40
3.0
 40
3.0
 40
3.0
 40
4.0
 40
4.0
 40
4.0
 40
5.0
 40
5.0
 40
5.0
 40
6.0
 40
6.0
 40
6.0
 40
7.0
 40
7.0
 40
7.0
 40
8.0
 40
8.0
 40
8.0
 40
9.0
 40
9.0
 40
9.0
 40
10.0
 40
10.0
 40
10.0
 40
11.0
 40
11.0
 40
11.0
 40
12.0
 40
12.0
 40
12.0
 40
13.0
 40
13.0
 40
13.0
 40
14.0
 40
14.0
 40
14.0
 40
15.0
 40
15.0
 40
15.0
 40
15.0
 10
-145.8082504493157
 20
-233.6196581824496
 30
0.0
 10
-143.7473929705031
 20
-233.6196581824496
 30
0.0
 10
-134.0563329773568
 20
-233.6196581824496
 30
0.0
 10
-132.653144660539
 20
-233.6196581824496
 30
0.0
 10
-131.2499563437212
 20
-233.6196581824496
 30
0.0
 10
-128.2244714926793
 20
-231.7021167703681
 30
0.0
 10
-128.2244714926793
 20
-229.1151928639147
 30
0.0
 10
-128.2244714926793
 20
-226.5289579770129
 30
0.0
 10
-127.873416031143
 20
-213.908186850496
 30
0.0
 10
-127.7421578065646
 20
-211.6340778204655
 30
0.0
 10
-127.6105550722105
 20
-209.3596242806592
 30
0.0
 10
-125.8125585523303
 20
-206.9959427089217
 30
0.0
 10
-122.480115491054
 20
-205.6582112495052
 30
0.0
 10
-119.1473279200018
 20
-204.3201352803128
 30
0.0
 10
-107.8339713926314
 20
-203.1608598847587
 30
0.0
 10
-98.62522508559982
 20
-203.606655534639
 30
0.0
 10
-89.41682328834403
 20
-204.0524511845192
 30
0.0
 10
-51.00398328707121
 20
-207.7986504865268
 30
0.0
 10
-41.35702054522689
 20
-209.4037215319611
 30
0.0
 10
-31.70971329360677
 20
-211.009481596947
 30
0.0
 10
-0.8247564032560282
 20
-217.9013996617494
 30
0.0
 10
13.01730187845824
 20
-221.3557991836576
 30
0.0
 10
27.19560170134957
 20
-224.8939145810843
 30
0.0
 10
51.63443617677819
 20
-232.9802480385719
 30
0.0
 10
54.09010185865328
 20
-234.28835165727
 30
0.0
 10
56.54576754052838
 20
-235.5967997857438
 30
0.0
 10
59.46927749793467
 20
-236.786392041568
 30
0.0
 10
59.93712177346586
 20
-239.4022547691883
 30
0.0
 10
60.40462153922127
 20
-242.0188065163602
 30
0.0
 10
59.93712177346586
 20
-250.8189642292975
 30
0.0
 10
59.93712177346586
 20
-250.8189642292975
 30
0.0
 10
59.93712177346586
 20
-250.8189642292975
 30
0.0
 10
116.0656879755051
 20
-250.8189642292975
 30
0.0
 10
116.0656879755051
 20
-250.8189642292975
 30
0.0
 10
116.0656879755051
 20
-250.8189642292975
 30
0.0
 10
116.0656879755051
 20
-247.2512209911524
 30
0.0
 10
116.0656879755051
 20
-243.4454214979321
 30
0.0
 10
116.0656879755051
 20
-239.6403110242635
 30
0.0
 10
108.1137133305779
 20
-235.834856040819
 30
0.0
 10
103.7877040759054
 20
-233.8132726764471
 30
0.0
 10
99.46066129190554
 20
-231.7913448022993
 30
0.0
 10
59.2501692805283
 20
-212.0984769982387
 30
0.0
 10
24.50635839148467
 20
-199.4442884234697
 30
0.0
 10
11.91004745904935
 20
-194.8567962489679
 30
0.0
 10
-15.92461987640211
 20
-187.5604237073808
 30
0.0
 10
-37.94292866708685
 20
-183.0115166277682
 30
0.0
  0
SPLINE
  5
F8
330
84
100
AcDbEntity
  8
\U+30EC\U+30A4\U+30E4\U+30FC 1
 62
   250
420
  2234132
370
    18
100
AcDbSpline
210
0.0
220
0.0
230
1.0
 70
     8
 71
     3
 72
    14
 73
    10
 74
     0
 42
0.0000000001
 43
0.0000000001
 40
0.0
 40
0.0
 40
0.0
 40
0.0
 40
1.0
 40
1.0
 40
1.0
 40
2.0
 40
2.0
 40
2.0
 40
3.0
 40
3.0
 40
3.0
 40
3.0
 10
-172.8202284401659
 20
-250.7889918788033
 30
0.0
 10
-172.8202284401659
 20
-250.7889918788033
 30
0.0
 10
-145.1505812873208
 20
-250.7889918788033
 30
0.0
 10
-145.1505812873208
 20
-250.7889918788033
 30
0.0
 10
-145.1505812873208
 20
-250.7889918788033
 30
0.0
 10
-147.2992887589616
 20
-206.4605745173344
 30
0.0
 10
-147.8253551866023
 20
-198.9685204230952
 30
0.0
 10
-148.0156968377297
 20
-196.2586065266825
 30
0.0
 10
-148.5731136549679
 20
-192.7552866166112
 30
0.0
 10
-149.2238926214469
 20
-189.311222387977
 30
0.0
  0
INSERT
  5
FA
330
84
100
AcDbEntity
  8
\U+30EC\U+30A4\U+30E4\U+30FC 1
100
AcDbBlockReference
  2
block 10
 10
0.0
 20
0.0
 30
0.0
  0
INSERT
  5
100
330
84
100
AcDbEntity
  8
\U+30EC\U+30A4\U+30E4\U+30FC 1
100
AcDbBlockReference
  2
block 11
 10
0.0
 20
0.0
 30
0.0
  0
SPLINE
  5
105
330
84
100
AcDbEntity
  8
\U+30EC\U+30A4\U+30E4\U+30FC 1
 62
   250
420
  2234132
370
    18
100
AcDbSpline
210
0.0
220
0.0
230
1.0
 70
     8
 71
     3
 72
    14
 73
    10
 74
     0
 42
0.0000000001
 43
0.0000000001
 40
0.0
 40
0.0
 40
0.0
 40
0.0
 40
1.0
 40
1.0
 40
1.0
 40
2.0
 40
2.0
 40
2.0
 40
3.0
 40
3.0
 40
3.0
 40
3.0
 10
-159.0913416198007
 20
-154.5512195394709
 30
0.0
 10
-159.0913416198007
 20
-154.5512195394709
 30
0.0
 10
-128.1510909104347
 20
-154.5512195394709
 30
0.0
 10
-128.1510909104347
 20
-154.5512195394709
 30
0.0
 10
-128.1510909104347
 20
-154.5512195394709
 30
0.0
 10
-127.9352555358984
 20
-156.499766831374
 30
0.0
 10
-127.4134954804551
 20
-158.5802613674071
 30
0.0
 10
-127.1225569747952
 20
-159.7409148020644
 30
0.0
 10
-126.2965947873239
 20
-161.1623621369994
 30
0.0
 10
-125.2124225228934
 20
-162.6540894661968
 30
0.0
  0
POLYLINE
  5
106
330
84
100
AcDbEntity
  8
\U+30EC\U+30A4\U+30E4\U+30FC 1
 62
   250
420
  2234132
370
    18
100
AcDb2dPolyline
 66
     1
 10
0.0
 20
0.0
 30
0.0
  0
VERTEX
  5
107
330
106
100
AcDbEntity
  8
\U+30EC\U+30A4\U+30E4\U+30FC 1
 62
   250
420
  2234132
370
    18
100
AcDbVertex
100
AcDb2dVertex
 10
-128.7942906618461
 20
27.1029285716604
 30
0.0
  0
VERTEX
  5
108
330
106
100
AcDbEntity
  8
\U+30EC\U+30A4\U+30E4\U+30FC 1
 62
   250
420
  2234132
370
    18
100
AcDbVertex
100
AcDb2dVertex
 10
-128.7942906618461
 20
59.925063931313
 30
0.0
  0
VERTEX
  5
109
330
106
100
AcDbEntity
  8
\U+30EC\U+30A4\U+30E4\U+30FC 1
 62
   250
420
  2234132
370
    18
100
AcDbVertex
100
AcDb2dVertex
 10
-159.0618860339701
 20
59.925063931313
 30
0.0
  0
SEQEND
  5
10A
330
106
100
AcDbEntity
  8
\U+30EC\U+30A4\U+30E4\U+30FC 1
370
    18
  0
POLYLINE
  5
10B
330
84
100
AcDbEntity
  8
\U+30EC\U+30A4\U+30E4\U+30FC 1
 62
   250
420
  2234132
370
    18
100
AcDb2dPolyline
 66
     1
 10
0.0
 20
0.0
 30
0.0
  0
VERTEX
  5
10C
330
10B
100
AcDbEntity
  8
\U+30EC\U+30A4\U+30E4\U+30FC 1
 62
   250
420
  2234132
370
    18
100
AcDbVertex
100
AcDb2dVertex
 10
-128.7942906618461
 20
-154.4916193482582
 30
0.0
  0
VERTEX
  5
10D
330
10B
100
AcDbEntity
  8
\U+30EC\U+30A4\U+30E4\U+30FC 1
 62
   250
420
  2234132
370
    18
100
AcDbVertex
100
AcDb2dVertex
 10
-128.7942906618461
 20
7.659141335500426
 30
0.0
  0
SEQEND
  5
10E
330
10B
100
AcDbEntity
  8
\U+30EC\U+30A4\U+30E4\U+30FC 1
370
    18
  0
SPLINE
  5
10F
330
84
100
AcDbEntity
  8
\U+30EC\U+30A4\U+30E4\U+30FC 1
 62
   250
420
  2234132
370
    18
100
AcDbSpline
210
0.0
220
0.0
230
1.0
 70
     8
 71
     3
 72
    11
 73
     7
 74
     0
 42
0.0000000001
 43
0.0000000001
 40
0.0
 40
0.0
 40
0.0
 40
0.0
 40
1.0
 40
1.0
 40
1.0
 40
2.0
 40
2.0
 40
2.0
 40
2.0
 10
-159.0768722092173
 20
5.388821913003673
 30
0.0
 10
-149.5153478917704
 20
4.976443711375659
 30
0.0
 10
-139.3576494073083
 20
4.421093952792234
 30
0.0
 10
-138.967664341107
 20
4.477593556022806
 30
0.0
 10
-138.3537479206382
 20
4.566821587954014
 30
0.0
 10
-136.1030655553619
 20
7.688769176218896
 30
0.0
 10
-136.1030655553619
 20
7.688769176218896
 30
0.0
  0
SPLINE
  5
110
330
84
100
AcDbEntity
  8
\U+30EC\U+30A4\U+30E4\U+30FC 1
 62
   250
420
  2234132
370
    18
100
AcDbSpline
210
0.0
220
0.0
230
1.0
 70
     8
 71
     3
 72
    11
 73
     7
 74
     0
 42
0.0000000001
 43
0.0000000001
 40
0.0
 40
0.0
 40
0.0
 40
0.0
 40
1.0
 40
1.0
 40
1.0
 40
2.0
 40
2.0
 40
2.0
 40
2.0
 10
-159.0618860339701
 20
36.4904754523302
 30
0.0
 10
-149.0423359696022
 20
35.22888065336463
 30
0.0
 10
-138.3058610618025
 20
33.37231747159908
 30
0.0
 10
-137.389120548409
 20
33.19730650549462
 30
0.0
 10
-135.9859322315912
 20
32.9299669194768
 30
0.0
 10
-132.740994653367
 20
32.12691463209593
 30
0.0
 10
-130.5485344402002
 20
27.04332838044766
 30
0.0
  0
SPLINE
  5
111
330
84
100
AcDbEntity
  8
\U+30EC\U+30A4\U+30E4\U+30FC 1
 62
   250
420
  2234132
370
    18
100
AcDbSpline
210
0.0
220
0.0
230
1.0
 70
     8
 71
     3
 72
     8
 73
     4
 74
     0
 42
0.0000000001
 43
0.0000000001
 40
0.0
 40
0.0
 40
0.0
 40
0.0
 40
1.0
 40
1.0
 40
1.0
 40
1.0
 10
-138.967664341107
 20
4.477593556022806
 30
0.0
 10
-139.3183752928675
 20
19.37247371257017
 30
0.0
 10
-138.0030369688777
 20
27.93491968020815
 30
0.0
 10
-135.0213048593619
 20
32.30537069595835
 30
0.0
  0
SPLINE
  5
112
330
84
100
AcDbEntity
  8
\U+30EC\U+30A4\U+30E4\U+30FC 1
 62
   250
420
  2234132
370
    18
100
AcDbSpline
210
0.0
220
0.0
230
1.0
 70
    11
 71
     3
 72
    20
 73
    16
 74
     0
 42
0.0000000001
 43
0.0000000001
 40
0.0
 40
0.0
 40
0.0
 40
0.0
 40
1.0
 40
1.0
 40
1.0
 40
2.0
 40
2.0
 40
2.0
 40
3.0
 40
3.0
 40
3.0
 40
4.0
 40
4.0
 40
4.0
 40
5.0
 40
5.0
 40
5.0
 40
5.0
 10
-133.7056220255963
 20
27.04332838044766
 30
0.0
 10
-133.7056220255963
 20
27.04332838044766
 30
0.0
 10
-106.2554275999334
 20
27.04332838044766
 30
0.0
 10
-106.2554275999334
 20
27.04332838044766
 30
0.0
 10
-106.2554275999334
 20
27.04332838044766
 30
0.0
 10
-106.2554275999334
 20
7.688769176218896
 30
0.0
 10
-106.2554275999334
 20
7.688769176218896
 30
0.0
 10
-106.2554275999334
 20
7.688769176218896
 30
0.0
 10
-137.1259150797007
 20
7.688769176218896
 30
0.0
 10
-137.1259150797007
 20
7.688769176218896
 30
0.0
 10
-137.1259150797007
 20
7.688769176218896
 30
0.0
 10
-137.1259150797007
 20
11.43462396845064
 30
0.0
 10
-136.6873541351121
 20
17.32091799770398
 30
0.0
 10
-136.2491377002994
 20
23.20790104650892
 30
0.0
 10
-133.7056220255963
 20
27.04332838044766
 30
0.0
 10
-133.7056220255963
 20
27.04332838044766
 30
0.0
  0
SPLINE
  5
113
330
84
100
AcDbEntity
  8
\U+30EC\U+30A4\U+30E4\U+30FC 1
 62
   250
420
  2234132
370
    18
100
AcDbSpline
210
0.0
220
0.0
230
1.0
 70
    11
 71
     3
 72
    17
 73
    13
 74
     0
 42
0.0000000001
 43
0.0000000001
 40
0.0
 40
0.0
 40
0.0
 40
0.0
 40
1.0
 40
1.0
 40
1.0
 40
2.0
 40
2.0
 40
2.0
 40
3.0
 40
3.0
 40
3.0
 40
4.0
 40
4.0
 40
4.0
 40
4.0
 10
-125.63720307645
 20
14.37777098307731
 30
0.0
 10
-125.63720307645
 20
11.22516202476657
 30
0.0
 10
-123.124004262017
 20
8.66958850791059
 30
0.0
 10
-120.0244498091789
 20
8.66958850791059
 30
0.0
 10
-116.9245508465649
 20
8.66958850791059
 30
0.0
 10
-114.4113520321319
 20
11.22516202476657
 30
0.0
 10
-114.4113520321319
 20
14.37777098307731
 30
0.0
 10
-114.4113520321319
 20
17.53072445116385
 30
0.0
 10
-116.9245508465649
 20
20.08595345824403
 30
0.0
 10
-120.0244498091789
 20
20.08595345824403
 30
0.0
 10
-123.124004262017
 20
20.08595345824403
 30
0.0
 10
-125.63720307645
 20
17.53072445116385
 30
0.0
 10
-125.63720307645
 20
14.37777098307731
 30
0.0
  0
SPLINE
  5
114
330
84
100
AcDbEntity
  8
\U+30EC\U+30A4\U+30E4\U+30FC 1
 62
   250
420
  2234132
370
    18
100
AcDbSpline
210
0.0
220
0.0
230
1.0
 70
     8
 71
     3
 72
    17
 73
    13
 74
     0
 42
0.0000000001
 43
0.0000000001
 40
0.0
 40
0.0
 40
0.0
 40
0.0
 40
1.0
 40
1.0
 40
1.0
 40
2.0
 40
2.0
 40
2.0
 40
3.0
 40
3.0
 40
3.0
 40
4.0
 40
4.0
 40
4.0
 40
4.0
 10
-106.2609397563461
 20
22.82721774425415
 30
0.0
 10
-105.5126645233168
 20
20.3670734352937
 30
0.0
 10
-104.7385510571028
 20
17.87764579539059
 30
0.0
 10
-103.8872674011105
 20
15.49294912732951
 30
0.0
 10
-99.5901969676049
 20
3.451643443701816
 30
0.0
 10
-93.40728002139106
 20
-14.2079276636098
 30
0.0
 10
-94.24030465926619
 20
-17.28508898102118
 30
0.0
 10
-95.07367380691713
 20
-20.36225029843256
 30
0.0
 10
-96.0383011791464
 20
-23.97443529765539
 30
0.0
 10
-108.7110932818085
 20
-23.97443529765539
 30
0.0
 10
-121.3835408746947
 20
-23.97443529765539
 30
0.0
 10
-128.75053792032
 20
-23.97443529765539
 30
0.0
 10
-128.75053792032
 20
-23.97443529765539
 30
0.0
  0
SPLINE
  5
115
330
84
100
AcDbEntity
  8
\U+30EC\U+30A4\U+30E4\U+30FC 1
 62
   250
420
  2234132
370
    18
100
AcDbSpline
210
0.0
220
0.0
230
1.0
 70
     8
 71
     3
 72
    11
 73
     7
 74
     0
 42
0.0000000001
 43
0.0000000001
 40
0.0
 40
0.0
 40
0.0
 40
0.0
 40
1.0
 40
1.0
 40
1.0
 40
2.0
 40
2.0
 40
2.0
 40
2.0
 10
-125.0670393975074
 20
27.04332838044766
 30
0.0
 10
-124.5847257113927
 20
31.45822115727557
 30
0.0
 10
-124.6284784529189
 20
42.25033439386635
 30
0.0
 10
-117.5687841273038
 20
42.25033439386635
 30
0.0
 10
-112.7239431502822
 20
42.25033439386635
 30
0.0
 10
-110.1094584617651
 20
35.31879770484743
 30
0.0
 10
-107.5562965133397
 20
27.07812386780308
 30
0.0
  0
SPLINE
  5
116
330
84
100
AcDbEntity
  8
\U+30EC\U+30A4\U+30E4\U+30FC 1
 62
   250
420
  2234132
370
    18
100
AcDbSpline
210
0.0
220
0.0
230
1.0
 70
     8
 71
     3
 72
    14
 73
    10
 74
     0
 42
0.0000000001
 43
0.0000000001
 40
0.0
 40
0.0
 40
0.0
 40
0.0
 40
1.0
 40
1.0
 40
1.0
 40
2.0
 40
2.0
 40
2.0
 40
3.0
 40
3.0
 40
3.0
 40
3.0
 10
-112.8769054907357
 20
7.599196634511893
 30
0.0
 10
-112.8769054907357
 20
7.599196634511893
 30
0.0
 10
-106.9568495034544
 20
-8.767429284236702
 30
0.0
 10
-106.3429330829856
 20
-10.55130090330926
 30
0.0
 10
-105.7290166625168
 20
-12.33482801260603
 30
0.0
 10
-105.8168666553449
 20
-12.78096817226207
 30
0.0
 10
-107.6586159167512
 20
-12.78096817226207
 30
0.0
 10
-109.5003651781575
 20
-12.78096817226207
 30
0.0
 10
-128.838387913148
 20
-12.78096817226207
 30
0.0
 10
-128.838387913148
 20
-12.78096817226207
 30
0.0
  0
SPLINE
  5
117
330
84
100
AcDbEntity
  8
\U+30EC\U+30A4\U+30E4\U+30FC 1
 62
   250
420
  2234132
370
    18
100
AcDbSpline
210
0.0
220
0.0
230
1.0
 70
     8
 71
     3
 72
    11
 73
     7
 74
     0
 42
0.0000000001
 43
0.0000000001
 40
0.0
 40
0.0
 40
0.0
 40
0.0
 40
1.0
 40
1.0
 40
1.0
 40
2.0
 40
2.0
 40
2.0
 40
2.0
 10
-145.6328949734355
 20
-240.8888144517488
 30
0.0
 10
-146.2171835531858
 20
-239.2833988965386
 30
0.0
 10
-147.7960718556596
 20
-237.8564394051909
 30
0.0
 10
-150.8367151368366
 20
-237.8564394051909
 30
0.0
 10
-153.876669398462
 20
-237.8564394051909
 30
0.0
 10
-172.9373617639366
 20
-237.8564394051909
 30
0.0
 10
-172.9373617639366
 20
-237.8564394051909
 30
0.0
  0
SPLINE
  5
118
330
84
100
AcDbEntity
  8
\U+30EC\U+30A4\U+30E4\U+30FC 1
 62
   250
420
  2234132
370
    18
100
AcDbSpline
210
0.0
220
0.0
230
1.0
 70
     8
 71
     3
 72
    23
 73
    19
 74
     0
 42
0.0000000001
 43
0.0000000001
 40
0.0
 40
0.0
 40
0.0
 40
0.0
 40
1.0
 40
1.0
 40
1.0
 40
2.0
 40
2.0
 40
2.0
 40
3.0
 40
3.0
 40
3.0
 40
4.0
 40
4.0
 40
4.0
 40
5.0
 40
5.0
 40
5.0
 40
6.0
 40
6.0
 40
6.0
 40
6.0
 10
-61.36270322571041
 20
-189.3677219912075
 30
0.0
 10
-56.71836693820226
 20
-190.1149636949094
 30
0.0
 10
-52.23905083330047
 20
-190.90492461081
 30
0.0
 10
-48.16866783226874
 20
-191.714522583931
 30
0.0
 10
-32.32362971407554
 20
-194.8657535031386
 30
0.0
 10
-0.5760203451311943
 20
-204.0820790252377
 30
0.0
 10
9.187386700932231
 20
-207.2932546454338
 30
0.0
 10
18.95148276654725
 20
-210.5037412460783
 30
0.0
 10
45.31991649621022
 20
-220.7315474699149
 30
0.0
 10
53.44759112679343
 20
-224.4774022621467
 30
0.0
 10
61.57423222804926
 20
-228.2236015641542
 30
0.0
 10
69.99336212895604
 20
-232.2671128026739
 30
0.0
 10
70.69512854225283
 20
-232.6829361020598
 30
0.0
 10
71.39655044577383
 20
-233.0991039112216
 30
0.0
 10
72.39080565872158
 20
-236.8456477230049
 30
0.0
 10
72.33189448706042
 20
-238.7480307049514
 30
0.0
 10
72.27367233495087
 20
-240.6511027064494
 30
0.0
 10
69.58442902508598
 20
-250.7593640380848
 30
0.0
 10
69.58442902508598
 20
-250.7593640380848
 30
0.0
  0
SPLINE
  5
119
330
84
100
AcDbEntity
  8
\U+30EC\U+30A4\U+30E4\U+30FC 1
 62
   250
420
  2234132
370
    18
100
AcDbSpline
210
0.0
220
0.0
230
1.0
 70
     8
 71
     3
 72
    20
 73
    16
 74
     0
 42
0.0000000001
 43
0.0000000001
 40
0.0
 40
0.0
 40
0.0
 40
0.0
 40
1.0
 40
1.0
 40
1.0
 40
2.0
 40
2.0
 40
2.0
 40
3.0
 40
3.0
 40
3.0
 40
4.0
 40
4.0
 40
4.0
 40
5.0
 40
5.0
 40
5.0
 40
5.0
 10
104.547348131536
 20
-250.7593640380848
 30
0.0
 10
105.1908923927232
 20
-249.6893166744619
 30
0.0
 10
105.2491145448328
 20
-245.7047166076034
 30
0.0
 10
105.1319812210621
 20
-243.6834777530073
 30
0.0
 10
105.0151924070672
 20
-241.6618943886354
 30
0.0
 10
104.1966371797755
 20
-240.5915025152367
 30
0.0
 10
103.0859376626086
 20
-239.6995667057004
 30
0.0
 10
101.9745491258902
 20
-238.8076308961641
 30
0.0
 10
64.61418648967465
 20
-221.088115087864
 30
0.0
 10
53.85652423066348
 20
-216.5688358489698
 30
0.0
 10
43.09886197165231
 20
-212.0499011198515
 30
0.0
 10
13.28050734716651
 20
-200.633536169518
 30
0.0
 10
-1.62849771018849
 20
-196.2331128032736
 30
0.0
 10
-12.43266878893214
 20
-193.04467482828
 30
0.0
 10
-25.10959500890377
 20
-189.5124160970419
 30
0.0
 10
-37.92432513919386
 20
-186.7005273069936
 30
0.0
  0
POLYLINE
  5
11A
330
84
100
AcDbEntity
  8
\U+30EC\U+30A4\U+30E4\U+30FC 1
 62
   250
420
  2234132
370
    18
100
AcDb2dPolyline
 66
     1
 10
0.0
 20
0.0
 30
0.0
  0
VERTEX
  5
11B
330
11A
100
AcDbEntity
  8
\U+30EC\U+30A4\U+30E4\U+30FC 1
 62
   250
420
  2234132
370
    18
100
AcDbVertex
100
AcDb2dVertex
 10
-112.8328082394338
 20
-204.0820790252377
 30
0.0
  0
VERTEX
  5
11C
330
11A
100
AcDbEntity
  8
\U+30EC\U+30A4\U+30E4\U+30FC 1
 62
   250
420
  2234132
370
    18
100
AcDbVertex
100
AcDb2dVertex
 10
-113.0861951795319
 20
-189.3611763054674
 30
0.0
  0
SEQEND
  5
11D
330
11A
100
AcDbEntity
  8
\U+30EC\U+30A4\U+30E4\U+30FC 1
370
    18
  0
POLYLINE
  5
11E
330
84
100
AcDbEntity
  8
\U+30EC\U+30A4\U+30E4\U+30FC 1
 62
   250
420
  2234132
370
    18
100
AcDb2dPolyline
 66
     1
 10
0.0
 20
0.0
 30
0.0
  0
VERTEX
  5
11F
330
11E
100
AcDbEntity
  8
\U+30EC\U+30A4\U+30E4\U+30FC 1
 62
   250
420
  2234132
370
    18
100
AcDbVertex
100
AcDb2dVertex
 10
-105.0568780899385
 20
-203.4874551522135
 30
0.0
  0
VERTEX
  5
120
330
11E
100
AcDbEntity
  8
\U+30EC\U+30A4\U+30E4\U+30FC 1
 62
   250
420
  2234132
370
    18
100
AcDbVertex
100
AcDb2dVertex
 10
-105.1424887692239
 20
-189.4059625763209
 30
0.0
  0
SEQEND
  5
121
330
11E
100
AcDbEntity
  8
\U+30EC\U+30A4\U+30E4\U+30FC 1
370
    18
  0
POLYLINE
  5
122
330
84
100
AcDbEntity
  8
\U+30EC\U+30A4\U+30E4\U+30FC 1
 62
   250
420
  2234132
370
    18
100
AcDb2dPolyline
 66
     1
 10
0.0
 20
0.0
 30
0.0
  0
VERTEX
  5
123
330
122
100
AcDbEntity
  8
\U+30EC\U+30A4\U+30E4\U+30FC 1
 62
   250
420
  2234132
370
    18
100
AcDbVertex
100
AcDb2dVertex
 10
-37.93672749112252
 20
-210.0283177554795
 30
0.0
  0
VERTEX
  5
124
330
122
100
AcDbEntity
  8
\U+30EC\U+30A4\U+30E4\U+30FC 1
 62
   250
420
  2234132
370
    18
100
AcDbVertex
100
AcDb2dVertex
 10
-38.22921629077346
 20
-193.9142175023896
 30
0.0
  0
SEQEND
  5
125
330
122
100
AcDbEntity
  8
\U+30EC\U+30A4\U+30E4\U+30FC 1
370
    18
  0
POLYLINE
  5
126
330
84
100
AcDbEntity
  8
\U+30EC\U+30A4\U+30E4\U+30FC 1
 62
   250
420
  2234132
370
    18
100
AcDb2dPolyline
 66
     1
 10
0.0
 20
0.0
 30
0.0
  0
VERTEX
  5
127
330
126
100
AcDbEntity
  8
\U+30EC\U+30A4\U+30E4\U+30FC 1
 62
   250
420
  2234132
370
    18
100
AcDbVertex
100
AcDb2dVertex
 10
-29.40080877622085
 20
-211.8121893745521
 30
0.0
  0
VERTEX
  5
128
330
126
100
AcDbEntity
  8
\U+30EC\U+30A4\U+30E4\U+30FC 1
 62
   250
420
  2234132
370
    18
100
AcDbVertex
100
AcDb2dVertex
 10
-29.2254533003406
 20
-196.2331128032736
 30
0.0
  0
SEQEND
  5
129
330
126
100
AcDbEntity
  8
\U+30EC\U+30A4\U+30E4\U+30FC 1
370
    18
  0
POLYLINE
  5
12A
330
84
100
AcDbEntity
  8
\U+30EC\U+30A4\U+30E4\U+30FC 1
 62
   250
420
  2234132
370
    18
100
AcDb2dPolyline
 66
     1
 10
0.0
 20
0.0
 30
0.0
  0
VERTEX
  5
12B
330
12A
100
AcDbEntity
  8
\U+30EC\U+30A4\U+30E4\U+30FC 1
 62
   250
420
  2234132
370
    18
100
AcDbVertex
100
AcDb2dVertex
 10
43.56601722763192
 20
-230.4232964826128
 30
0.0
  0
VERTEX
  5
12C
330
12A
100
AcDbEntity
  8
\U+30EC\U+30A4\U+30E4\U+30FC 1
 62
   250
420
  2234132
370
    18
100
AcDbVertex
100
AcDb2dVertex
 10
43.56601722763192
 20
-220.2557794695404
 30
0.0
  0
SEQEND
  5
12D
330
12A
100
AcDbEntity
  8
\U+30EC\U+30A4\U+30E4\U+30FC 1
370
    18
  0
POLYLINE
  5
12E
330
84
100
AcDbEntity
  8
\U+30EC\U+30A4\U+30E4\U+30FC 1
 62
   250
420
  2234132
370
    18
100
AcDb2dPolyline
 66
     1
 10
0.0
 20
0.0
 30
0.0
  0
VERTEX
  5
12F
330
12E
100
AcDbEntity
  8
\U+30EC\U+30A4\U+30E4\U+30FC 1
 62
   250
420
  2234132
370
    18
100
AcDbVertex
100
AcDb2dVertex
 10
52.39511376173613
 20
-233.4560160389464
 30
0.0
  0
VERTEX
  5
130
330
12E
100
AcDbEntity
  8
\U+30EC\U+30A4\U+30E4\U+30FC 1
 62
   250
420
  2234132
370
    18
100
AcDbVertex
100
AcDb2dVertex
 10
52.39511376173613
 20
-224.0608899432091
 30
0.0
  0
SEQEND
  5
131
330
12E
100
AcDbEntity
  8
\U+30EC\U+30A4\U+30E4\U+30FC 1
370
    18
  0
SPLINE
  5
132
330
84
100
AcDbEntity
  8
\U+30EC\U+30A4\U+30E4\U+30FC 1
 62
   250
420
  2234132
370
    18
100
AcDbSpline
210
0.0
220
0.0
230
1.0
 70
     8
 71
     3
 72
    29
 73
    25
 74
     0
 42
0.0000000001
 43
0.0000000001
 40
0.0
 40
0.0
 40
0.0
 40
0.0
 40
1.0
 40
1.0
 40
1.0
 40
2.0
 40
2.0
 40
2.0
 40
3.0
 40
3.0
 40
3.0
 40
4.0
 40
4.0
 40
4.0
 40
5.0
 40
5.0
 40
5.0
 40
6.0
 40
6.0
 40
6.0
 40
7.0
 40
7.0
 40
7.0
 40
8.0
 40
8.0
 40
8.0
 40
8.0
 10
-124.3511480834029
 20
-206.6986307724096
 30
0.0
 10
-121.0769271742361
 20
-207.0548538805828
 30
0.0
 10
-90.79072827421915
 20
-214.6664528670234
 30
0.0
 10
-84.06693098000532
 20
-217.5207163594946
 30
0.0
 10
-77.3434781955673
 20
-220.3746353421901
 30
0.0
 10
-67.76024976224527
 20
-225.1450622076397
 30
0.0
 10
-65.59156072360838
 20
-227.0942985190944
 30
0.0
 10
-60.5634405458633
 20
-231.6132332482127
 30
0.0
 10
-56.29530893352456
 20
-236.3099350216419
 30
0.0
 10
-56.29530893352456
 20
-237.8564394051909
 30
0.0
 10
-56.29530893352456
 20
-239.4022547691883
 30
0.0
 10
-56.29530893352456
 20
-250.9970757833842
 30
0.0
 10
-56.29530893352456
 20
-250.9970757833842
 30
0.0
 10
-56.29530893352456
 20
-250.9970757833842
 30
0.0
 10
1.528589875207601
 20
-250.9970757833842
 30
0.0
 10
1.528589875207601
 20
-250.9970757833842
 30
0.0
 10
1.528589875207601
 20
-250.9970757833842
 30
0.0
 10
1.528589875207601
 20
-245.9431173724544
 30
0.0
 10
1.528589875207601
 20
-243.3861658164952
 30
0.0
 10
1.528589875207601
 20
-240.829214260536
 30
0.0
 10
-6.890540025699173
 20
-233.7536724852343
 30
0.0
 10
-15.07609229861614
 20
-227.2128098819683
 30
0.0
 10
-23.26164457153312
 20
-220.6716027689264
 30
0.0
 10
-36.59176132641428
 20
-211.4556217566031
 30
0.0
 10
-41.15203722862817
 20
-209.4932940736681
 30
0.0
  0
SPLINE
  5
133
330
84
100
AcDbEntity
  8
\U+30EC\U+30A4\U+30E4\U+30FC 1
 62
   250
420
  2234132
370
    18
100
AcDbSpline
210
0.0
220
0.0
230
1.0
 70
     8
 71
     3
 72
    11
 73
     7
 74
     0
 42
0.0000000001
 43
0.0000000001
 40
0.0
 40
0.0
 40
0.0
 40
0.0
 40
1.0
 40
1.0
 40
1.0
 40
2.0
 40
2.0
 40
2.0
 40
2.0
 10
-8.586217142167916
 20
-250.4623966113485
 30
0.0
 10
-8.586217142167916
 20
-246.8946533732034
 30
0.0
 10
-10.8083051960532
 20
-241.0669260058354
 30
0.0
 10
-13.1468375541576
 20
-238.2130070231399
 30
0.0
 10
-15.48536991226199
 20
-235.3587435306687
 30
0.0
 10
-43.56050507121918
 20
-211.9238105419101
 30
0.0
 10
-55.13672255752205
 20
-207.6425875580911
 30
0.0
  0
SPLINE
  5
134
330
84
100
AcDbEntity
  8
\U+30EC\U+30A4\U+30E4\U+30FC 1
 62
   250
420
  2234132
370
    18
100
AcDbSpline
210
0.0
220
0.0
230
1.0
 70
     8
 71
     3
 72
    11
 73
     7
 74
     0
 42
0.0000000001
 43
0.0000000001
 40
0.0
 40
0.0
 40
0.0
 40
0.0
 40
1.0
 40
1.0
 40
1.0
 40
2.0
 40
2.0
 40
2.0
 40
2.0
 10
-15.30966992660595
 20
-236.0722232763425
 30
0.0
 10
-18.73030749048611
 20
-234.28835165727
 30
0.0
 10
-29.07869213585143
 20
-231.2559766107121
 30
0.0
 10
-30.48188045266922
 20
-230.096701215158
 30
0.0
 10
-31.88541327926281
 20
-228.9370813098281
 30
0.0
 10
-52.93323803152975
 20
-211.009481596947
 30
0.0
 10
-66.08834382030646
 20
-206.5501470590414
 30
0.0
  0
POLYLINE
  5
135
330
84
100
AcDbEntity
  8
\U+30EC\U+30A4\U+30E4\U+30FC 1
 62
   250
420
  2234132
370
    18
100
AcDb2dPolyline
 66
     1
 10
0.0
 20
0.0
 30
0.0
  0
VERTEX
  5
136
330
135
100
AcDbEntity
  8
\U+30EC\U+30A4\U+30E4\U+30FC 1
 62
   250
420
  2234132
370
    18
100
AcDbVertex
100
AcDb2dVertex
 10
-90.64465612928157
 20
-215.290704580766
 30
0.0
  0
VERTEX
  5
137
330
135
100
AcDbEntity
  8
\U+30EC\U+30A4\U+30E4\U+30FC 1
 62
   250
420
  2234132
370
    18
100
AcDbVertex
100
AcDb2dVertex
 10
-90.64465612928157
 20
-204.1416792164504
 30
0.0
  0
SEQEND
  5
138
330
135
100
AcDbEntity
  8
\U+30EC\U+30A4\U+30E4\U+30FC 1
370
    18
  0
POLYLINE
  5
139
330
84
100
AcDbEntity
  8
\U+30EC\U+30A4\U+30E4\U+30FC 1
 62
   250
420
  2234132
370
    18
100
AcDb2dPolyline
 66
     1
 10
0.0
 20
0.0
 30
0.0
  0
VERTEX
  5
13A
330
139
100
AcDbEntity
  8
\U+30EC\U+30A4\U+30E4\U+30FC 1
 62
   250
420
  2234132
370
    18
100
AcDbVertex
100
AcDb2dVertex
 10
-82.48838718730728
 20
-218.1449680732373
 30
0.0
  0
VERTEX
  5
13B
330
139
100
AcDbEntity
  8
\U+30EC\U+30A4\U+30E4\U+30FC 1
 62
   250
420
  2234132
370
    18
100
AcDbVertex
100
AcDb2dVertex
 10
-82.48838718730728
 20
-204.8555034719001
 30
0.0
  0
SEQEND
  5
13C
330
139
100
AcDbEntity
  8
\U+30EC\U+30A4\U+30E4\U+30FC 1
370
    18
  0
POLYLINE
  5
13D
330
84
100
AcDbEntity
  8
\U+30EC\U+30A4\U+30E4\U+30FC 1
 62
   250
420
  2234132
370
    18
100
AcDb2dPolyline
 66
     1
 10
0.0
 20
0.0
 30
0.0
  0
VERTEX
  5
13E
330
13D
100
AcDbEntity
  8
\U+30EC\U+30A4\U+30E4\U+30FC 1
 62
   250
420
  2234132
370
    18
100
AcDbVertex
100
AcDb2dVertex
 10
-40.39204866322181
 20
-222.0692789293315
 30
0.0
  0
VERTEX
  5
13F
330
13D
100
AcDbEntity
  8
\U+30EC\U+30A4\U+30E4\U+30FC 1
 62
   250
420
  2234132
370
    18
100
AcDbVertex
100
AcDb2dVertex
 10
-40.39204866322181
 20
-236.1617958180495
 30
0.0
  0
VERTEX
  5
140
330
13D
100
AcDbEntity
  8
\U+30EC\U+30A4\U+30E4\U+30FC 1
 62
   250
420
  2234132
370
    18
100
AcDbVertex
100
AcDb2dVertex
 10
-48.89902855695662
 20
-234.28835165727
 30
0.0
  0
VERTEX
  5
141
330
13D
100
AcDbEntity
  8
\U+30EC\U+30A4\U+30E4\U+30FC 1
 62
   250
420
  2234132
370
    18
100
AcDbVertex
100
AcDb2dVertex
 10
-48.89902855695662
 20
-215.9149562945087
 30
0.0
  0
SEQEND
  5
142
330
13D
100
AcDbEntity
  8
\U+30EC\U+30A4\U+30E4\U+30FC 1
370
    18
  0
ENDBLK
  5
87
330
84
100
AcDbEntity
  8
0
100
AcDbBlockEnd
  0
BLOCK
  5
92
330
90
100
AcDbEntity
  8
0
100
AcDbBlockBegin
  2
block 7
 70
     0
 71
     0
 10
0.0
 20
0.0
 30
0.0
  3
block 7
  1

  0
POLYLINE
  5
94
330
90
100
AcDbEntity
  8
\U+30EC\U+30A4\U+30E4\U+30FC 1
 62
   250
420
  2234132
370
    18
100
AcDb2dPolyline
 66
     1
 10
0.0
 20
0.0
 30
0.0
  0
VERTEX
  5
95
330
94
100
AcDbEntity
  8
\U+30EC\U+30A4\U+30E4\U+30FC 1
 62
   250
420
  2234132
370
    18
100
AcDbVertex
100
AcDb2dVertex
 10
-186.6631479963197
 20
69.30537610669109
 30
0.0
  0
VERTEX
  5
96
330
94
100
AcDbEntity
  8
\U+30EC\U+30A4\U+30E4\U+30FC 1
 62
   250
420
  2234132
370
    18
100
AcDbVertex
100
AcDb2dVertex
 10
-186.6631479963197
 20
-162.6702814256592
 30
0.0
  0
SEQEND
  5
97
330
94
100
AcDbEntity
  8
\U+30EC\U+30A4\U+30E4\U+30FC 1
370
    18
  0
POLYLINE
  5
98
330
90
100
AcDbEntity
  8
\U+30EC\U+30A4\U+30E4\U+30FC 1
 62
   250
420
  2234132
370
    18
100
AcDb2dPolyline
 66
     1
 10
0.0
 20
0.0
 30
0.0
  0
VERTEX
  5
99
330
98
100
AcDbEntity
  8
\U+30EC\U+30A4\U+30E4\U+30FC 1
 62
   250
420
  2234132
370
    18
100
AcDbVertex
100
AcDb2dVertex
 10
-159.0878965220427
 20
69.30537610669109
 30
0.0
  0
VERTEX
  5
9A
330
98
100
AcDbEntity
  8
\U+30EC\U+30A4\U+30E4\U+30FC 1
 62
   250
420
  2234132
370
    18
100
AcDbVertex
100
AcDb2dVertex
 10
-159.0878965220427
 20
-162.6509888782146
 30
0.0
  0
SEQEND
  5
9B
330
98
100
AcDbEntity
  8
\U+30EC\U+30A4\U+30E4\U+30FC 1
370
    18
  0
ENDBLK
  5
93
330
90
100
AcDbEntity
  8
0
100
AcDbBlockEnd
  0
BLOCK
  5
AE
330
AC
100
AcDbEntity
  8
0
100
AcDbBlockBegin
  2
block 8
 70
     0
 71
     0
 10
0.0
 20
0.0
 30
0.0
  3
block 8
  1

  0
SPLINE
  5
B0
330
AC
100
AcDbEntity
  8
\U+30EC\U+30A4\U+30E4\U+30FC 1
 62
   250
420
  2234132
370
    18
100
AcDbSpline
210
0.0
220
0.0
230
1.0
 70
     8
 71
     3
 72
    14
 73
    10
 74
     0
 42
0.0000000001
 43
0.0000000001
 40
0.0
 40
0.0
 40
0.0
 40
0.0
 40
1.0
 40
1.0
 40
1.0
 40
2.0
 40
2.0
 40
2.0
 40
3.0
 40
3.0
 40
3.0
 40
3.0
 10
-339.9777496955703
 20
-250.8337781496568
 30
0.0
 10
-339.9777496955703
 20
-250.8337781496568
 30
0.0
 10
-339.9777496955703
 20
-258.9645533682221
 30
0.0
 10
-339.9777496955703
 20
-260.3022848276387
 30
0.0
 10
-339.9777496955703
 20
-261.6400162870552
 30
0.0
 10
-338.6624113715804
 20
-263.6023439699902
 30
0.0
 10
-336.7328121173462
 20
-263.6023439699902
 30
0.0
 10
-334.8032128631118
 20
-263.6023439699902
 30
0.0
 10
-316.2107092829442
 20
-263.6023439699902
 30
0.0
 10
-316.2107092829442
 20
-263.6023439699902
 30
0.0
  0
SPLINE
  5
B1
330
AC
100
AcDbEntity
  8
\U+30EC\U+30A4\U+30E4\U+30FC 1
 62
   250
420
  2234132
370
    18
100
AcDbSpline
210
0.0
220
0.0
230
1.0
 70
     8
 71
     3
 72
    14
 73
    10
 74
     0
 42
0.0000000001
 43
0.0000000001
 40
0.0
 40
0.0
 40
0.0
 40
0.0
 40
1.0
 40
1.0
 40
1.0
 40
2.0
 40
2.0
 40
2.0
 40
3.0
 40
3.0
 40
3.0
 40
3.0
 10
-292.4440133800938
 20
-250.8337781496568
 30
0.0
 10
-292.4440133800938
 20
-250.8337781496568
 30
0.0
 10
-292.4440133800938
 20
-258.9645533682221
 30
0.0
 10
-292.4440133800938
 20
-260.3022848276387
 30
0.0
 10
-292.4440133800938
 20
-261.6400162870552
 30
0.0
 10
-293.7596962138594
 20
-263.6023439699902
 30
0.0
 10
-295.6889509583179
 20
-263.6023439699902
 30
0.0
 10
-297.6182057027765
 20
-263.6023439699902
 30
0.0
 10
-316.2107092829442
 20
-263.6023439699902
 30
0.0
 10
-316.2107092829442
 20
-263.6023439699902
 30
0.0
  0
ENDBLK
  5
AF
330
AC
100
AcDbEntity
  8
0
100
AcDbBlockEnd
  0
BLOCK
  5
B4
330
B2
100
AcDbEntity
  8
0
100
AcDbBlockBegin
  2
block 9
 70
     0
 71
     0
 10
0.0
 20
0.0
 30
0.0
  3
block 9
  1

  0
SPLINE
  5
B6
330
B2
100
AcDbEntity
  8
\U+30EC\U+30A4\U+30E4\U+30FC 1
 62
   250
420
  2234132
370
    18
100
AcDbSpline
210
0.0
220
0.0
230
1.0
 70
     8
 71
     3
 72
    14
 73
    10
 74
     0
 42
0.0000000001
 43
0.0000000001
 40
0.0
 40
0.0
 40
0.0
 40
0.0
 40
1.0
 40
1.0
 40
1.0
 40
2.0
 40
2.0
 40
2.0
 40
3.0
 40
3.0
 40
3.0
 40
3.0
 10
-456.0933915885658
 20
-250.8337781496568
 30
0.0
 10
-456.0933915885658
 20
-250.8337781496568
 30
0.0
 10
-456.0933915885658
 20
-258.9645533682221
 30
0.0
 10
-456.0933915885658
 20
-260.3022848276387
 30
0.0
 10
-456.0933915885658
 20
-261.6400162870552
 30
0.0
 10
-454.778053264576
 20
-263.6023439699902
 30
0.0
 10
-452.8484540103416
 20
-263.6023439699902
 30
0.0
 10
-450.9188547561073
 20
-263.6023439699902
 30
0.0
 10
-432.3263511759397
 20
-263.6023439699902
 30
0.0
 10
-432.3263511759397
 20
-263.6023439699902
 30
0.0
  0
SPLINE
  5
B7
330
B2
100
AcDbEntity
  8
\U+30EC\U+30A4\U+30E4\U+30FC 1
 62
   250
420
  2234132
370
    18
100
AcDbSpline
210
0.0
220
0.0
230
1.0
 70
     8
 71
     3
 72
    14
 73
    10
 74
     0
 42
0.0000000001
 43
0.0000000001
 40
0.0
 40
0.0
 40
0.0
 40
0.0
 40
1.0
 40
1.0
 40
1.0
 40
2.0
 40
2.0
 40
2.0
 40
3.0
 40
3.0
 40
3.0
 40
3.0
 10
-408.5596552730894
 20
-250.8337781496568
 30
0.0
 10
-408.5596552730894
 20
-250.8337781496568
 30
0.0
 10
-408.5596552730894
 20
-258.9645533682221
 30
0.0
 10
-408.5596552730894
 20
-260.3022848276387
 30
0.0
 10
-408.5596552730894
 20
-261.6400162870552
 30
0.0
 10
-409.8753381068549
 20
-263.6023439699902
 30
0.0
 10
-411.8045928513135
 20
-263.6023439699902
 30
0.0
 10
-413.733847595772
 20
-263.6023439699902
 30
0.0
 10
-432.3263511759397
 20
-263.6023439699902
 30
0.0
 10
-432.3263511759397
 20
-263.6023439699902
 30
0.0
  0
ENDBLK
  5
B5
330
B2
100
AcDbEntity
  8
0
100
AcDbBlockEnd
  0
BLOCK
  5
FB
330
F9
100
AcDbEntity
  8
0
100
AcDbBlockBegin
  2
block 10
 70
     0
 71
     0
 10
0.0
 20
0.0
 30
0.0
  3
block 10
  1

  0
SPLINE
  5
FD
330
F9
100
AcDbEntity
  8
\U+30EC\U+30A4\U+30E4\U+30FC 1
 62
   250
420
  2234132
370
    18
100
AcDbSpline
210
0.0
220
0.0
230
1.0
 70
     8
 71
     3
 72
    14
 73
    10
 74
     0
 42
0.0000000001
 43
0.0000000001
 40
0.0
 40
0.0
 40
0.0
 40
0.0
 40
1.0
 40
1.0
 40
1.0
 40
2.0
 40
2.0
 40
2.0
 40
3.0
 40
3.0
 40
3.0
 40
3.0
 10
-5.89628481275143
 20
-250.8337781496568
 30
0.0
 10
-5.89628481275143
 20
-250.8337781496568
 30
0.0
 10
-5.89628481275143
 20
-258.9645533682221
 30
0.0
 10
-5.89628481275143
 20
-260.3022848276387
 30
0.0
 10
-5.89628481275143
 20
-261.6400162870552
 30
0.0
 10
-7.211967646516999
 20
-263.6023439699902
 30
0.0
 10
-9.141222390975544
 20
-263.6023439699902
 30
0.0
 10
-11.07082164520989
 20
-263.6023439699902
 30
0.0
 10
-29.66332522537753
 20
-263.6023439699902
 30
0.0
 10
-29.66332522537753
 20
-263.6023439699902
 30
0.0
  0
SPLINE
  5
FE
330
F9
100
AcDbEntity
  8
\U+30EC\U+30A4\U+30E4\U+30FC 1
 62
   250
420
  2234132
370
    18
100
AcDbSpline
210
0.0
220
0.0
230
1.0
 70
     8
 71
     3
 72
    14
 73
    10
 74
     0
 42
0.0000000001
 43
0.0000000001
 40
0.0
 40
0.0
 40
0.0
 40
0.0
 40
1.0
 40
1.0
 40
1.0
 40
2.0
 40
2.0
 40
2.0
 40
3.0
 40
3.0
 40
3.0
 40
3.0
 10
-53.43002112822783
 20
-250.8337781496568
 30
0.0
 10
-53.43002112822783
 20
-250.8337781496568
 30
0.0
 10
-53.43002112822783
 20
-258.9645533682221
 30
0.0
 10
-53.43002112822783
 20
-260.3022848276387
 30
0.0
 10
-53.43002112822783
 20
-261.6400162870552
 30
0.0
 10
-52.11468280423805
 20
-263.6023439699902
 30
0.0
 10
-50.18508355000371
 20
-263.6023439699902
 30
0.0
 10
-48.25582880554516
 20
-263.6023439699902
 30
0.0
 10
-29.66332522537753
 20
-263.6023439699902
 30
0.0
 10
-29.66332522537753
 20
-263.6023439699902
 30
0.0
  0
ENDBLK
  5
FC
330
F9
100
AcDbEntity
  8
0
100
AcDbBlockEnd
  0
BLOCK
  5
101
330
FF
100
AcDbEntity
  8
0
100
AcDbBlockBegin
  2
block 11
 70
     0
 71
     0
 10
0.0
 20
0.0
 30
0.0
  3
block 11
  1

  0
SPLINE
  5
103
330
FF
100
AcDbEntity
  8
\U+30EC\U+30A4\U+30E4\U+30FC 1
 62
   250
420
  2234132
370
    18
100
AcDbSpline
210
0.0
220
0.0
230
1.0
 70
     8
 71
     3
 72
    14
 73
    10
 74
     0
 42
0.0000000001
 43
0.0000000001
 40
0.0
 40
0.0
 40
0.0
 40
0.0
 40
1.0
 40
1.0
 40
1.0
 40
2.0
 40
2.0
 40
2.0
 40
3.0
 40
3.0
 40
3.0
 40
3.0
 10
110.2186680606925
 20
-250.8337781496568
 30
0.0
 10
110.2186680606925
 20
-250.8337781496568
 30
0.0
 10
110.2186680606925
 20
-258.9645533682221
 30
0.0
 10
110.2186680606925
 20
-260.3022848276387
 30
0.0
 10
110.2186680606925
 20
-261.6400162870552
 30
0.0
 10
108.9029852269269
 20
-263.6023439699902
 30
0.0
 10
106.9733859726926
 20
-263.6023439699902
 30
0.0
 10
105.0441312282341
 20
-263.6023439699902
 30
0.0
 10
86.4516276480664
 20
-263.6023439699902
 30
0.0
 10
86.4516276480664
 20
-263.6023439699902
 30
0.0
  0
SPLINE
  5
104
330
FF
100
AcDbEntity
  8
\U+30EC\U+30A4\U+30E4\U+30FC 1
 62
   250
420
  2234132
370
    18
100
AcDbSpline
210
0.0
220
0.0
230
1.0
 70
     8
 71
     3
 72
    14
 73
    10
 74
     0
 42
0.0000000001
 43
0.0000000001
 40
0.0
 40
0.0
 40
0.0
 40
0.0
 40
1.0
 40
1.0
 40
1.0
 40
2.0
 40
2.0
 40
2.0
 40
3.0
 40
3.0
 40
3.0
 40
3.0
 10
62.68458723544031
 20
-250.8337781496568
 30
0.0
 10
62.68458723544031
 20
-250.8337781496568
 30
0.0
 10
62.68458723544031
 20
-258.9645533682221
 30
0.0
 10
62.68458723544031
 20
-260.3022848276387
 30
0.0
 10
62.68458723544031
 20
-261.6400162870552
 30
0.0
 10
64.00027006920588
 20
-263.6023439699902
 30
0.0
 10
65.92986932344022
 20
-263.6023439699902
 30
0.0
 10
67.85912406789876
 20
-263.6023439699902
 30
0.0
 10
86.4516276480664
 20
-263.6023439699902
 30
0.0
 10
86.4516276480664
 20
-263.6023439699902
 30
0.0
  0
ENDBLK
  5
102
330
FF
100
AcDbEntity
  8
0
100
AcDbBlockEnd
  0
BLOCK
  5
145
330
143
100
AcDbEntity
  8
0
100
AcDbBlockBegin
  2
block 12
 70
     0
 71
     0
 10
0.0
 20
0.0
 30
0.0
  3
block 12
  1

  0
INSERT
  5
148
330
143
100
AcDbEntity
  8
\U+30EC\U+30A4\U+30E4\U+30FC 1
100
AcDbBlockReference
  2
block 13
 10
0.0
 20
0.0
 30
0.0
  0
INSERT
  5
164
330
143
100
AcDbEntity
  8
\U+30EC\U+30A4\U+30E4\U+30FC 1
100
AcDbBlockReference
  2
block 16
 10
0.0
 20
0.0
 30
0.0
  0
ENDBLK
  5
146
330
143
100
AcDbEntity
  8
0
100
AcDbBlockEnd
  0
BLOCK
  5
149
330
147
100
AcDbEntity
  8
0
100
AcDbBlockBegin
  2
block 13
 70
     0
 71
     0
 10
0.0
 20
0.0
 30
0.0
  3
block 13
  1

  0
INSERT
  5
14C
330
147
100
AcDbEntity
  8
\U+30EC\U+30A4\U+30E4\U+30FC 1
100
AcDbBlockReference
  2
block 14
 10
0.0
 20
0.0
 30
0.0
  0
INSERT
  5
158
330
147
100
AcDbEntity
  8
\U+30EC\U+30A4\U+30E4\U+30FC 1
100
AcDbBlockReference
  2
block 15
 10
0.0
 20
0.0
 30
0.0
  0
ENDBLK
  5
14A
330
147
100
AcDbEntity
  8
0
100
AcDbBlockEnd
  0
BLOCK
  5
14D
330
14B
100
AcDbEntity
  8
0
100
AcDbBlockBegin
  2
block 14
 70
     0
 71
     0
 10
0.0
 20
0.0
 30
0.0
  3
block 14
  1

  0
SPLINE
  5
14F
330
14B
100
AcDbEntity
  8
\U+30EC\U+30A4\U+30E4\U+30FC 1
 62
   250
420
  2234132
370
    18
100
AcDbSpline
210
0.0
220
0.0
230
1.0
 70
     8
 71
     3
 72
    23
 73
    19
 74
     0
 42
0.0000000001
 43
0.0000000001
 40
0.0
 40
0.0
 40
0.0
 40
0.0
 40
1.0
 40
1.0
 40
1.0
 40
2.0
 40
2.0
 40
2.0
 40
3.0
 40
3.0
 40
3.0
 40
4.0
 40
4.0
 40
4.0
 40
5.0
 40
5.0
 40
5.0
 40
6.0
 40
6.0
 40
6.0
 40
6.0
 10
-159.932634492295
 20
891.4672762411983
 30
0.0
 10
-146.3363839356113
 20
891.4672762411983
 30
0.0
 10
-117.4371813929496
 20
894.3890636497257
 30
0.0
 10
-102.1338848971959
 20
895.8501296088772
 30
0.0
 10
-86.83076065633009
 20
897.310851058253
 30
0.0
 10
-61.28639431037156
 20
899.8674581044363
 30
0.0
 10
-44.92373025404462
 20
902.1110780193089
 30
0.0
 10
-28.56123845260558
 20
904.3543534244056
 30
0.0
 10
-14.31765402720088
 20
905.9198058456234
 30
0.0
 10
-1.309998422464932
 20
910.7720537828246
 30
0.0
 10
11.69782943715891
 20
915.6241294651378
 30
0.0
 10
20.58549263314848
 20
922.7721905482447
 30
0.0
 10
27.88393223339031
 20
930.076486814675
 30
0.0
 10
35.18219957874425
 20
937.3811275908812
 30
0.0
 10
44.01095160307267
 20
951.676905247319
 30
0.0
 10
47.36578779977577
 20
960.3378810108346
 30
0.0
 10
50.72079625136676
 20
968.9988567743503
 30
0.0
 10
53.07483154938198
 20
978.1815925933093
 30
0.0
 10
53.31047623602655
 20
980.6339854323144
 30
0.0
  0
SPLINE
  5
150
330
14B
100
AcDbEntity
  8
\U+30EC\U+30A4\U+30E4\U+30FC 1
 62
   250
420
  2234132
370
    18
100
AcDbSpline
210
0.0
220
0.0
230
1.0
 70
     8
 71
     3
 72
    86
 73
    82
 74
     0
 42
0.0000000001
 43
0.0000000001
 40
0.0
 40
0.0
 40
0.0
 40
0.0
 40
1.0
 40
1.0
 40
1.0
 40
2.0
 40
2.0
 40
2.0
 40
3.0
 40
3.0
 40
3.0
 40
4.0
 40
4.0
 40
4.0
 40
5.0
 40
5.0
 40
5.0
 40
6.0
 40
6.0
 40
6.0
 40
7.0
 40
7.0
 40
7.0
 40
8.0
 40
8.0
 40
8.0
 40
9.0
 40
9.0
 40
9.0
 40
10.0
 40
10.0
 40
10.0
 40
11.0
 40
11.0
 40
11.0
 40
12.0
 40
12.0
 40
12.0
 40
13.0
 40
13.0
 40
13.0
 40
14.0
 40
14.0
 40
14.0
 40
15.0
 40
15.0
 40
15.0
 40
16.0
 40
16.0
 40
16.0
 40
17.0
 40
17.0
 40
17.0
 40
18.0
 40
18.0
 40
18.0
 40
19.0
 40
19.0
 40
19.0
 40
20.0
 40
20.0
 40
20.0
 40
21.0
 40
21.0
 40
21.0
 40
22.0
 40
22.0
 40
22.0
 40
23.0
 40
23.0
 40
23.0
 40
24.0
 40
24.0
 40
24.0
 40
25.0
 40
25.0
 40
25.0
 40
26.0
 40
26.0
 40
26.0
 40
27.0
 40
27.0
 40
27.0
 40
27.0
 10
-159.8737233206338
 20
1306.308378256379
 30
0.0
 10
-146.5129451957068
 20
1306.308378256379
 30
0.0
 10
-136.6835645275784
 20
1304.690904859016
 30
0.0
 10
-127.7960735864767
 20
1303.64738474813
 30
0.0
 10
-118.9085826453751
 20
1302.603864637243
 30
0.0
 10
-103.8996697530392
 20
1300.464631184437
 30
0.0
 10
-88.89092911559118
 20
1295.71694196419
 30
0.0
 10
-73.88201622325529
 20
1290.969080489055
 30
0.0
 10
-53.51718210150425
 20
1280.690459073288
 30
0.0
 10
-43.51124017328033
 20
1274.794863280089
 30
0.0
 10
-33.5052982450564
 20
1268.899095232001
 30
0.0
 10
-20.68970684032682
 20
1255.540900930392
 30
0.0
 10
-15.90687762294861
 20
1253.298831309511
 30
0.0
 10
-9.78545567171438
 20
1250.429237132016
 30
0.0
 10
-5.37107965955017
 20
1242.915995686566
 30
0.0
 10
-5.37107965955017
 20
1242.915995686566
 30
0.0
 10
-5.37107965955017
 20
1242.915995686566
 30
0.0
 10
-2.251543639715861
 20
1234.933187416705
 30
0.0
 10
-0.2504586070038147
 20
1231.229018307344
 30
0.0
 10
1.750626425708232
 20
1227.524504688208
 30
0.0
 10
6.812508561481341
 20
1218.028953992826
 30
0.0
 10
9.755483321220114
 20
1210.463519316342
 30
0.0
 10
12.69845808095889
 20
1202.898084639859
 30
0.0
 10
16.11203319443522
 20
1194.811062162819
 30
0.0
 10
18.28985174213071
 20
1187.402207179435
 30
0.0
 10
20.46767028982619
 20
1179.993524450938
 30
0.0
 10
23.94050108473947
 20
1163.767114010939
 30
0.0
 10
25.29407999384262
 20
1157.766959500785
 30
0.0
 10
26.64765890294576
 20
1151.766804990631
 30
0.0
 10
34.88798823021433
 20
1096.775121048719
 30
0.0
 10
40.06752045442182
 20
1061.296126298126
 30
0.0
 10
45.24688042374143
 20
1025.817476057309
 30
0.0
 10
49.01357805740884
 20
996.5996019720362
 30
0.0
 10
50.19094021619225
 20
989.9212799682275
 30
0.0
 10
51.36813012008776
 20
983.2427857095308
 30
0.0
 10
56.43001225586087
 20
972.6771876505261
 30
0.0
 10
60.57946025043782
 20
968.4510862308344
 30
0.0
 10
64.72890824501478
 20
964.2249848111428
 30
0.0
 10
72.05680343108719
 20
961.0162207593773
 30
0.0
 10
85.65305398777089
 20
961.2508319166946
 30
0.0
 10
99.24930454445459
 20
961.4857875837876
 30
0.0
 10
113.5518001415204
 20
962.7380806188066
 30
0.0
 10
123.881236749217
 20
966.5728189331937
 30
0.0
 10
134.2110178666893
 20
970.4077295024688
 30
0.0
 10
143.3043533988292
 20
976.6685056580126
 30
0.0
 10
147.2775846430864
 20
987.0773517690301
 30
0.0
 10
151.2504713775678
 20
997.4863701349356
 30
0.0
 10
154.7816965794785
 20
1008.912553613879
 30
0.0
 10
156.8125817077969
 20
1023.469297425483
 30
0.0
 10
158.8427778165638
 20
1038.026213491974
 30
0.0
 10
160.3438069097077
 20
1065.73100064195
 30
0.0
 10
160.0788788921204
 20
1087.331074564818
 30
0.0
 10
159.814295384309
 20
1108.931492997462
 30
0.0
 10
156.8125817077969
 20
1139.140521707701
 30
0.0
 10
154.6053075742709
 20
1155.732112510045
 30
0.0
 10
152.3980334407449
 20
1172.323703312388
 30
0.0
 10
148.2487577010558
 20
1194.550268262542
 30
0.0
 10
142.8630363760343
 20
1217.637418632634
 30
0.0
 10
137.4776595607886
 20
1240.724741257614
 30
0.0
 10
128.5603685240805
 20
1264.672993812309
 30
0.0
 10
126.0003163801392
 20
1272.733833546388
 30
0.0
 10
123.4399197264221
 20
1280.795017790242
 30
0.0
 10
120.2614725349266
 20
1288.69945008611
 30
0.0
 10
118.4076654313674
 20
1292.925551505801
 30
0.0
 10
116.5535138180325
 20
1297.151652925493
 30
0.0
 10
113.9931171643153
 20
1298.560353398723
 30
0.0
 10
110.9032089851995
 20
1304.273531265639
 30
0.0
 10
107.8129562963079
 20
1309.986709132555
 30
0.0
 10
95.8942960928636
 20
1332.995655783542
 30
0.0
 10
89.27281820206123
 20
1342.621947938838
 30
0.0
 10
82.65134031125886
 20
1352.248067839247
 30
0.0
 10
67.11274363863636
 20
1378.465950796887
 30
0.0
 10
56.78313477605194
 20
1389.892134275831
 30
0.0
 10
46.45352591346751
 20
1401.318490009662
 30
0.0
 10
31.17985725843226
 20
1419.083997873031
 30
0.0
 10
14.40515951025311
 20
1432.466824623609
 30
0.0
 10
-2.369365983038151
 20
1445.849479119299
 30
0.0
 10
-24.31153811327194
 20
1463.207259663013
 30
0.0
 10
-44.92373025404462
 20
1474.41519619899
 30
0.0
 10
-79.17919853589719
 20
1493.041633992073
 30
0.0
 10
-123.6760811777304
 20
1498.989595271194
 30
0.0
 10
-159.8737233206338
 20
1498.989595271194
 30
0.0
  0
SPLINE
  5
151
330
14B
100
AcDbEntity
  8
\U+30EC\U+30A4\U+30E4\U+30FC 1
 62
   250
420
  2234132
370
    18
100
AcDbSpline
210
0.0
220
0.0
230
1.0
 70
     8
 71
     3
 72
    14
 73
    10
 74
     0
 42
0.0000000001
 43
0.0000000001
 40
0.0
 40
0.0
 40
0.0
 40
0.0
 40
1.0
 40
1.0
 40
1.0
 40
2.0
 40
2.0
 40
2.0
 40
3.0
 40
3.0
 40
3.0
 40
3.0
 10
-5.37107965955017
 20
1242.915995686566
 30
0.0
 10
-5.017957139359098
 20
1249.020536658786
 30
0.0
 10
2.045010029126058
 20
1254.498931113497
 30
0.0
 10
7.165631081672414
 20
1257.159752366858
 30
0.0
 10
12.28625213421877
 20
1259.820745875108
 30
0.0
 10
37.00672335136076
 20
1266.394681416851
 30
0.0
 10
58.90204215208627
 20
1271.873075871561
 30
0.0
 10
80.79718869792389
 20
1277.351470326272
 30
0.0
 10
115.3466960734185
 20
1286.638420352409
 30
0.0
 10
120.2321892039839
 20
1288.360280211838
 30
0.0
  0
SPLINE
  5
152
330
14B
100
AcDbEntity
  8
\U+30EC\U+30A4\U+30E4\U+30FC 1
  6
AI-Linetype-11
 62
   250
420
  2234132
370
    18
100
AcDbSpline
210
0.0
220
0.0
230
1.0
 70
     8
 71
     3
 72
    14
 73
    10
 74
     0
 42
0.0000000001
 43
0.0000000001
 40
0.0
 40
0.0
 40
0.0
 40
0.0
 40
1.0
 40
1.0
 40
1.0
 40
2.0
 40
2.0
 40
2.0
 40
3.0
 40
3.0
 40
3.0
 40
3.0
 10
117.9367205678541
 20
1293.786481435516
 30
0.0
 10
112.6984494268733
 20
1292.377780962285
 30
0.0
 10
100.8089002994838
 20
1287.890885642316
 30
0.0
 10
81.2092223897761
 20
1283.142851912293
 30
0.0
 10
61.60937222518046
 20
1278.39481818227
 30
0.0
 10
35.06437723542196
 20
1271.142715146873
 30
0.0
 10
20.70314272158287
 20
1267.438201527737
 30
0.0
 10
6.341735952855876
 20
1263.733687908601
 30
0.0
 10
-4.546840020957837
 20
1260.498913368763
 30
0.0
 10
-8.313882164401045
 20
1246.985689668046
 30
0.0
  0
SPLINE
  5
154
330
14B
100
AcDbEntity
  8
\U+30EC\U+30A4\U+30E4\U+30FC 1
  6
AI-Linetype-12
 62
   250
420
  2234132
370
    18
100
AcDbSpline
210
0.0
220
0.0
230
1.0
 70
     8
 71
     3
 72
    17
 73
    13
 74
     0
 42
0.0000000001
 43
0.0000000001
 40
0.0
 40
0.0
 40
0.0
 40
0.0
 40
1.0
 40
1.0
 40
1.0
 40
2.0
 40
2.0
 40
2.0
 40
3.0
 40
3.0
 40
3.0
 40
4.0
 40
4.0
 40
4.0
 40
4.0
 10
-3.54655588693366
 20
1238.637873290729
 30
0.0
 10
-2.604666159906935
 20
1242.863974710421
 30
0.0
 10
1.162031473760478
 20
1248.498948858231
 30
0.0
 10
6.165002437872442
 20
1251.524950473936
 30
0.0
 10
11.1681456568723
 20
1254.550952089642
 30
0.0
 10
30.53235113482336
 20
1259.664338436897
 30
0.0
 10
43.77530691642809
 20
1263.159906877012
 30
0.0
 10
57.01843495292072
 20
1266.655647572016
 30
0.0
 10
81.73890617006272
 20
1271.716496178462
 30
0.0
 10
98.1603091431629
 20
1276.568916370551
 30
0.0
 10
114.5815398613752
 20
1281.420992052864
 30
0.0
 10
122.0567129766005
 20
1283.821019405948
 30
0.0
 10
122.0567129766005
 20
1283.821019405948
 30
0.0
  0
SPLINE
  5
156
330
14B
100
AcDbEntity
  8
\U+30EC\U+30A4\U+30E4\U+30FC 1
 62
   250
420
  2234132
370
    18
100
AcDbSpline
210
0.0
220
0.0
230
1.0
 70
     8
 71
     3
 72
    23
 73
    19
 74
     0
 42
0.0000000001
 43
0.0000000001
 40
0.0
 40
0.0
 40
0.0
 40
0.0
 40
1.0
 40
1.0
 40
1.0
 40
2.0
 40
2.0
 40
2.0
 40
3.0
 40
3.0
 40
3.0
 40
4.0
 40
4.0
 40
4.0
 40
5.0
 40
5.0
 40
5.0
 40
6.0
 40
6.0
 40
6.0
 40
6.0
 10
-159.9179928268236
 20
1273.986126581407
 30
0.0
 10
-148.6172109062698
 20
1273.986126581407
 30
0.0
 10
-138.6407245638764
 20
1273.360152318785
 30
0.0
 10
-125.6184272936691
 20
1271.012318196734
 30
0.0
 10
-112.595957768574
 20
1268.664311819796
 30
0.0
 10
-96.83670258455402
 20
1264.633891952756
 30
0.0
 10
-85.00623688371358
 20
1260.290312699518
 30
0.0
 10
-73.17577118287315
 20
1255.94673344628
 30
0.0
 10
-57.63717451025064
 20
1249.724886895401
 30
0.0
 10
-46.20392858090319
 20
1242.642110414808
 30
0.0
 10
-34.77085490644362
 20
1235.559506189102
 30
0.0
 10
-20.37999255188606
 20
1225.581125042942
 30
0.0
 10
-11.68370453635127
 20
1217.011444370012
 30
0.0
 10
-2.987416520816478
 20
1208.441591442195
 30
0.0
 10
4.649503934145095
 20
1199.989388602811
 30
0.0
 10
8.578293417324604
 20
1194.706675700753
 30
0.0
 10
12.50708290050411
 20
1189.423962798695
 30
0.0
 10
18.15738773333708
 20
1181.910721353244
 30
0.0
 10
20.85024839584783
 20
1177.215053109142
 30
0.0
  0
ENDBLK
  5
14E
330
14B
100
AcDbEntity
  8
0
100
AcDbBlockEnd
  0
BLOCK
  5
159
330
157
100
AcDbEntity
  8
0
100
AcDbBlockBegin
  2
block 15
 70
     0
 71
     0
 10
0.0
 20
0.0
 30
0.0
  3
block 15
  1

  0
SPLINE
  5
15B
330
157
100
AcDbEntity
  8
\U+30EC\U+30A4\U+30E4\U+30FC 1
 62
   250
420
  2234132
370
    18
100
AcDbSpline
210
0.0
220
0.0
230
1.0
 70
     8
 71
     3
 72
    23
 73
    19
 74
     0
 42
0.0000000001
 43
0.0000000001
 40
0.0
 40
0.0
 40
0.0
 40
0.0
 40
1.0
 40
1.0
 40
1.0
 40
2.0
 40
2.0
 40
2.0
 40
3.0
 40
3.0
 40
3.0
 40
4.0
 40
4.0
 40
4.0
 40
5.0
 40
5.0
 40
5.0
 40
6.0
 40
6.0
 40
6.0
 40
6.0
 10
-159.8487463618886
 20
891.4672762411983
 30
0.0
 10
-173.4449969185723
 20
891.4672762411983
 30
0.0
 10
-202.3441994612339
 20
894.3890636497257
 30
0.0
 10
-217.6474959569876
 20
895.8501296088772
 30
0.0
 10
-232.9506201978535
 20
897.310851058253
 30
0.0
 10
-258.494986543812
 20
899.8674581044363
 30
0.0
 10
-274.8576506001389
 20
902.1110780193089
 30
0.0
 10
-291.220142401578
 20
904.3543534244056
 30
0.0
 10
-305.4637268269827
 20
905.9198058456234
 30
0.0
 10
-318.4715546866065
 20
910.7720537828246
 30
0.0
 10
-331.4792102913424
 20
915.6241294651378
 30
0.0
 10
-340.366873487332
 20
922.7721905482447
 30
0.0
 10
-347.6653130875738
 20
930.076486814675
 30
0.0
 10
-354.9635804329278
 20
937.3811275908812
 30
0.0
 10
-363.7923324572562
 20
951.676905247319
 30
0.0
 10
-367.1473409088472
 20
960.3378810108346
 30
0.0
 10
-370.5021771055503
 20
968.9988567743503
 30
0.0
 10
-372.8562124035655
 20
978.1815925933093
 30
0.0
 10
-373.0918570902101
 20
980.6339854323144
 30
0.0
  0
SPLINE
  5
15C
330
157
100
AcDbEntity
  8
\U+30EC\U+30A4\U+30E4\U+30FC 1
 62
   250
420
  2234132
370
    18
100
AcDbSpline
210
0.0
220
0.0
230
1.0
 70
     8
 71
     3
 72
    86
 73
    82
 74
     0
 42
0.0000000001
 43
0.0000000001
 40
0.0
 40
0.0
 40
0.0
 40
0.0
 40
1.0
 40
1.0
 40
1.0
 40
2.0
 40
2.0
 40
2.0
 40
3.0
 40
3.0
 40
3.0
 40
4.0
 40
4.0
 40
4.0
 40
5.0
 40
5.0
 40
5.0
 40
6.0
 40
6.0
 40
6.0
 40
7.0
 40
7.0
 40
7.0
 40
8.0
 40
8.0
 40
8.0
 40
9.0
 40
9.0
 40
9.0
 40
10.0
 40
10.0
 40
10.0
 40
11.0
 40
11.0
 40
11.0
 40
12.0
 40
12.0
 40
12.0
 40
13.0
 40
13.0
 40
13.0
 40
14.0
 40
14.0
 40
14.0
 40
15.0
 40
15.0
 40
15.0
 40
16.0
 40
16.0
 40
16.0
 40
17.0
 40
17.0
 40
17.0
 40
18.0
 40
18.0
 40
18.0
 40
19.0
 40
19.0
 40
19.0
 40
20.0
 40
20.0
 40
20.0
 40
21.0
 40
21.0
 40
21.0
 40
22.0
 40
22.0
 40
22.0
 40
23.0
 40
23.0
 40
23.0
 40
24.0
 40
24.0
 40
24.0
 40
25.0
 40
25.0
 40
25.0
 40
26.0
 40
26.0
 40
26.0
 40
27.0
 40
27.0
 40
27.0
 40
27.0
 10
-159.9076575335497
 20
1306.308378256379
 30
0.0
 10
-173.2684356584768
 20
1306.308378256379
 30
0.0
 10
-183.0978163266051
 20
1304.690904859016
 30
0.0
 10
-191.9853072677068
 20
1303.64738474813
 30
0.0
 10
-200.8727982088085
 20
1302.603864637243
 30
0.0
 10
-215.8817111011444
 20
1300.464631184437
 30
0.0
 10
-230.8906239934803
 20
1295.71694196419
 30
0.0
 10
-245.8993646309283
 20
1290.969080489055
 30
0.0
 10
-266.2641987526793
 20
1280.690459073288
 30
0.0
 10
-276.2701406809032
 20
1274.794863280089
 30
0.0
 10
-286.2760826091271
 20
1268.899095232001
 30
0.0
 10
-299.0918462687446
 20
1255.540900930392
 30
0.0
 10
-303.8746754861228
 20
1253.298831309511
 30
0.0
 10
-309.9959251824691
 20
1250.429237132016
 30
0.0
 10
-314.4103011946333
 20
1242.915995686566
 30
0.0
 10
-314.4103011946333
 20
1242.915995686566
 30
0.0
 10
-314.4103011946333
 20
1242.915995686566
 30
0.0
 10
-317.5298372144677
 20
1234.933187416705
 30
0.0
 10
-319.5309222471797
 20
1231.229018307344
 30
0.0
 10
-321.5320072798918
 20
1227.524504688208
 30
0.0
 10
-326.5938894156649
 20
1218.028953992826
 30
0.0
 10
-329.5368641754037
 20
1210.463519316342
 30
0.0
 10
-332.4798389351424
 20
1202.898084639859
 30
0.0
 10
-335.8934140486188
 20
1194.811062162819
 30
0.0
 10
-338.0712325963142
 20
1187.402207179435
 30
0.0
 10
-340.2490511440097
 20
1179.993524450938
 30
0.0
 10
-343.7217096840351
 20
1163.767114010939
 30
0.0
 10
-345.0754608480262
 20
1157.766959500785
 30
0.0
 10
-346.4290397571293
 20
1151.766804990631
 30
0.0
 10
-354.6693690843979
 20
1096.775121048719
 30
0.0
 10
-359.8489013086054
 20
1061.296126298126
 30
0.0
 10
-365.028261277925
 20
1025.817476057309
 30
0.0
 10
-368.7951311664803
 20
996.5996019720362
 30
0.0
 10
-369.9723210703758
 20
989.9212799682275
 30
0.0
 10
-371.1495109742713
 20
983.2427857095308
 30
0.0
 10
-376.2113931100444
 20
972.6771876505261
 30
0.0
 10
-380.3608411046214
 20
968.4510862308344
 30
0.0
 10
-384.5102890991983
 20
964.2249848111428
 30
0.0
 10
-391.8381842852707
 20
961.0162207593773
 30
0.0
 10
-405.4344348419544
 20
961.2508319166946
 30
0.0
 10
-419.0306853986381
 20
961.4857875837876
 30
0.0
 10
-433.333180995704
 20
962.7380806188066
 30
0.0
 10
-443.6627898582884
 20
966.5728189331937
 30
0.0
 10
-453.9923987208728
 20
970.4077295024688
 30
0.0
 10
-463.0860787627885
 20
976.6685056580126
 30
0.0
 10
-467.0589654972699
 20
987.0773517690301
 30
0.0
 10
-471.0318522317514
 20
997.4863701349356
 30
0.0
 10
-474.5634219434378
 20
1008.912553613879
 30
0.0
 10
-476.5939625619805
 20
1023.469297425483
 30
0.0
 10
-478.6245031805231
 20
1038.026213491974
 30
0.0
 10
-480.125532273667
 20
1065.73100064195
 30
0.0
 10
-479.8606042560797
 20
1087.331074564818
 30
0.0
 10
-479.5956762384925
 20
1108.931492997462
 30
0.0
 10
-476.5939625619805
 20
1139.140521707701
 30
0.0
 10
-474.3866884284544
 20
1155.732112510045
 30
0.0
 10
-472.1795865498163
 20
1172.323703312388
 30
0.0
 10
-468.0301385552393
 20
1194.550268262542
 30
0.0
 10
-462.6445894851057
 20
1217.637418632634
 30
0.0
 10
-457.2590404149721
 20
1240.724741257614
 30
0.0
 10
-448.3420938880399
 20
1264.672993812309
 30
0.0
 10
-445.7816972343227
 20
1272.733833546388
 30
0.0
 10
-443.2213005806056
 20
1280.795017790242
 30
0.0
 10
-440.0430256439981
 20
1288.69945008611
 30
0.0
 10
-438.189046285551
 20
1292.925551505801
 30
0.0
 10
-436.334894672216
 20
1297.151652925493
 30
0.0
 10
-433.7746702733868
 20
1298.560353398723
 30
0.0
 10
-430.684589839383
 20
1304.273531265639
 30
0.0
 10
-427.5945094053793
 20
1309.986709132555
 30
0.0
 10
-415.6756769470471
 20
1332.995655783542
 30
0.0
 10
-409.0541990562448
 20
1342.621947938838
 30
0.0
 10
-402.4327211654424
 20
1352.248067839247
 30
0.0
 10
-386.8941244928199
 20
1378.465950796887
 30
0.0
 10
-376.5645156302355
 20
1389.892134275831
 30
0.0
 10
-366.2349067676511
 20
1401.318490009662
 30
0.0
 10
-350.9612381126158
 20
1419.083997873031
 30
0.0
 10
-334.1867126193246
 20
1432.466824623609
 30
0.0
 10
-317.4120148711454
 20
1445.849479119299
 30
0.0
 10
-295.4698427409116
 20
1463.207259663013
 30
0.0
 10
-274.8576506001389
 20
1474.41519619899
 30
0.0
 10
-240.6021823182864
 20
1493.041633992073
 30
0.0
 10
-196.1052996764532
 20
1498.989595271194
 30
0.0
 10
-159.9076575335497
 20
1498.989595271194
 30
0.0
  0
SPLINE
  5
15D
330
157
100
AcDbEntity
  8
\U+30EC\U+30A4\U+30E4\U+30FC 1
 62
   250
420
  2234132
370
    18
100
AcDbSpline
210
0.0
220
0.0
230
1.0
 70
     8
 71
     3
 72
    14
 73
    10
 74
     0
 42
0.0000000001
 43
0.0000000001
 40
0.0
 40
0.0
 40
0.0
 40
0.0
 40
1.0
 40
1.0
 40
1.0
 40
2.0
 40
2.0
 40
2.0
 40
3.0
 40
3.0
 40
3.0
 40
3.0
 10
-314.4103011946333
 20
1242.915995686566
 30
0.0
 10
-314.7634237148245
 20
1249.020536658786
 30
0.0
 10
-321.8263908833096
 20
1254.498931113497
 30
0.0
 10
-326.947011935856
 20
1257.159752366858
 30
0.0
 10
-332.0676329884023
 20
1259.820745875108
 30
0.0
 10
-356.7881042055443
 20
1266.394681416851
 30
0.0
 10
-378.6834230062698
 20
1271.873075871561
 30
0.0
 10
-400.5785695521074
 20
1277.351470326272
 30
0.0
 10
-435.1282491824899
 20
1286.638420352409
 30
0.0
 10
-440.0135700581675
 20
1288.360280211838
 30
0.0
  0
SPLINE
  5
15E
330
157
100
AcDbEntity
  8
\U+30EC\U+30A4\U+30E4\U+30FC 1
  6
AI-Linetype-13
 62
   250
420
  2234132
370
    18
100
AcDbSpline
210
0.0
220
0.0
230
1.0
 70
     8
 71
     3
 72
    14
 73
    10
 74
     0
 42
0.0000000001
 43
0.0000000001
 40
0.0
 40
0.0
 40
0.0
 40
0.0
 40
1.0
 40
1.0
 40
1.0
 40
2.0
 40
2.0
 40
2.0
 40
3.0
 40
3.0
 40
3.0
 40
3.0
 10
-437.7181014220376
 20
1293.786481435516
 30
0.0
 10
-432.4798302810569
 20
1292.377780962285
 30
0.0
 10
-420.5902811536674
 20
1287.890885642316
 30
0.0
 10
-400.9906032439596
 20
1283.142851912293
 30
0.0
 10
-381.390753079364
 20
1278.39481818227
 30
0.0
 10
-354.8459303444934
 20
1271.142715146873
 30
0.0
 10
-340.4845235757664
 20
1267.438201527737
 30
0.0
 10
-326.1231168070394
 20
1263.733687908601
 30
0.0
 10
-315.2345408332257
 20
1260.498913368763
 30
0.0
 10
-311.4674986897825
 20
1246.985689668046
 30
0.0
  0
SPLINE
  5
160
330
157
100
AcDbEntity
  8
\U+30EC\U+30A4\U+30E4\U+30FC 1
  6
AI-Linetype-14
 62
   250
420
  2234132
370
    18
100
AcDbSpline
210
0.0
220
0.0
230
1.0
 70
     8
 71
     3
 72
    17
 73
    13
 74
     0
 42
0.0000000001
 43
0.0000000001
 40
0.0
 40
0.0
 40
0.0
 40
0.0
 40
1.0
 40
1.0
 40
1.0
 40
2.0
 40
2.0
 40
2.0
 40
3.0
 40
3.0
 40
3.0
 40
4.0
 40
4.0
 40
4.0
 40
4.0
 10
-316.2348249672499
 20
1238.637873290729
 30
0.0
 10
-317.1767146942766
 20
1242.863974710421
 30
0.0
 10
-320.943412327944
 20
1248.498948858231
 30
0.0
 10
-325.946383292056
 20
1251.524950473936
 30
0.0
 10
-330.9495265110559
 20
1254.550952089642
 30
0.0
 10
-350.3137319890069
 20
1259.664338436897
 30
0.0
 10
-363.5568600254995
 20
1263.159906877012
 30
0.0
 10
-376.7998158071043
 20
1266.655647572016
 30
0.0
 10
-401.5202870242463
 20
1271.716496178462
 30
0.0
 10
-417.9416899973464
 20
1276.568916370551
 30
0.0
 10
-434.3630929704466
 20
1281.420992052864
 30
0.0
 10
-441.8382660856719
 20
1283.821019405948
 30
0.0
 10
-441.8382660856719
 20
1283.821019405948
 30
0.0
  0
SPLINE
  5
162
330
157
100
AcDbEntity
  8
\U+30EC\U+30A4\U+30E4\U+30FC 1
 62
   250
420
  2234132
370
    18
100
AcDbSpline
210
0.0
220
0.0
230
1.0
 70
     8
 71
     3
 72
    23
 73
    19
 74
     0
 42
0.0000000001
 43
0.0000000001
 40
0.0
 40
0.0
 40
0.0
 40
0.0
 40
1.0
 40
1.0
 40
1.0
 40
2.0
 40
2.0
 40
2.0
 40
3.0
 40
3.0
 40
3.0
 40
4.0
 40
4.0
 40
4.0
 40
5.0
 40
5.0
 40
5.0
 40
6.0
 40
6.0
 40
6.0
 40
6.0
 10
-159.8633880273599
 20
1273.986126581407
 30
0.0
 10
-171.1641699479138
 20
1273.986126581407
 30
0.0
 10
-181.1406562903071
 20
1273.360152318785
 30
0.0
 10
-194.1631258154023
 20
1271.012318196734
 30
0.0
 10
-207.1854230856096
 20
1268.664311819796
 30
0.0
 10
-222.9446782696295
 20
1264.633891952756
 30
0.0
 10
-234.77514397047
 20
1260.290312699518
 30
0.0
 10
-246.6056096713104
 20
1255.94673344628
 30
0.0
 10
-262.1442063439329
 20
1249.724886895401
 30
0.0
 10
-273.5774522732804
 20
1242.642110414808
 30
0.0
 10
-285.0106982026278
 20
1235.559506189102
 30
0.0
 10
-299.4013883022975
 20
1225.581125042942
 30
0.0
 10
-308.0976763178323
 20
1217.011444370012
 30
0.0
 10
-316.7939643333671
 20
1208.441591442195
 30
0.0
 10
-324.4308847883286
 20
1199.989388602811
 30
0.0
 10
-328.3596742715081
 20
1194.706675700753
 30
0.0
 10
-332.2884637546877
 20
1189.423962798695
 30
0.0
 10
-337.9387685875206
 20
1181.910721353244
 30
0.0
 10
-340.6316292500314
 20
1177.215053109142
 30
0.0
  0
ENDBLK
  5
15A
330
157
100
AcDbEntity
  8
0
100
AcDbBlockEnd
  0
BLOCK
  5
165
330
163
100
AcDbEntity
  8
0
100
AcDbBlockBegin
  2
block 16
 70
     0
 71
     0
 10
0.0
 20
0.0
 30
0.0
  3
block 16
  1

  0
POLYLINE
  5
167
330
163
100
AcDbEntity
  8
\U+30EC\U+30A4\U+30E4\U+30FC 1
 62
   250
420
  2234132
370
    18
100
AcDb2dPolyline
 66
     1
 10
0.0
 20
0.0
 30
0.0
  0
VERTEX
  5
168
330
167
100
AcDbEntity
  8
\U+30EC\U+30A4\U+30E4\U+30FC 1
 62
   250
420
  2234132
370
    18
100
AcDbVertex
100
AcDb2dVertex
 10
-171.4385719843354
 20
891.4085373244251
 30
0.0
  0
VERTEX
  5
169
330
167
100
AcDbEntity
  8
\U+30EC\U+30A4\U+30E4\U+30FC 1
 62
   250
420
  2234132
370
    18
100
AcDbVertex
100
AcDb2dVertex
 10
-171.4385719843354
 20
650.1113065334699
 30
0.0
  0
SEQEND
  5
16A
330
167
100
AcDbEntity
  8
\U+30EC\U+30A4\U+30E4\U+30FC 1
370
    18
  0
POLYLINE
  5
16B
330
163
100
AcDbEntity
  8
\U+30EC\U+30A4\U+30E4\U+30FC 1
 62
   250
420
  2234132
370
    18
100
AcDb2dPolyline
 66
     1
 10
0.0
 20
0.0
 30
0.0
  0
VERTEX
  5
16C
330
16B
100
AcDbEntity
  8
\U+30EC\U+30A4\U+30E4\U+30FC 1
 62
   250
420
  2234132
370
    18
100
AcDbVertex
100
AcDb2dVertex
 10
-146.86916830388
 20
891.4674484960863
 30
0.0
  0
VERTEX
  5
16D
330
16B
100
AcDbEntity
  8
\U+30EC\U+30A4\U+30E4\U+30FC 1
 62
   250
420
  2234132
370
    18
100
AcDbVertex
100
AcDb2dVertex
 10
-146.86916830388
 20
650.1113065334699
 30
0.0
  0
SEQEND
  5
16E
330
16B
100
AcDbEntity
  8
\U+30EC\U+30A4\U+30E4\U+30FC 1
370
    18
  0
POLYLINE
  5
16F
330
163
100
AcDbEntity
  8
\U+30EC\U+30A4\U+30E4\U+30FC 1
 62
   250
420
  2234132
370
    18
100
AcDb2dPolyline
 66
     1
 10
0.0
 20
0.0
 30
0.0
  0
VERTEX
  5
170
330
16F
100
AcDbEntity
  8
\U+30EC\U+30A4\U+30E4\U+30FC 1
 62
   250
420
  2234132
370
    18
100
AcDbVertex
100
AcDb2dVertex
 10
-43.67729388521408
 20
628.989067669631
 30
0.0
  0
VERTEX
  5
171
330
16F
100
AcDbEntity
  8
\U+30EC\U+30A4\U+30E4\U+30FC 1
 62
   250
420
  2234132
370
    18
100
AcDbVertex
100
AcDb2dVertex
 10
-271.1204085523021
 20
628.989067669631
 30
0.0
  0
VERTEX
  5
172
330
16F
100
AcDbEntity
  8
\U+30EC\U+30A4\U+30E4\U+30FC 1
 62
   250
420
  2234132
370
    18
100
AcDbVertex
100
AcDb2dVertex
 10
-271.1204085523021
 20
650.0816786927516
 30
0.0
  0
VERTEX
  5
173
330
16F
100
AcDbEntity
  8
\U+30EC\U+30A4\U+30E4\U+30FC 1
 62
   250
420
  2234132
370
    18
100
AcDbVertex
100
AcDb2dVertex
 10
-43.67729388521408
 20
650.0816786927516
 30
0.0
  0
VERTEX
  5
174
330
16F
100
AcDbEntity
  8
\U+30EC\U+30A4\U+30E4\U+30FC 1
 62
   250
420
  2234132
370
    18
100
AcDbVertex
100
AcDb2dVertex
 10
-43.67729388521408
 20
628.989067669631
 30
0.0
  0
SEQEND
  5
175
330
16F
100
AcDbEntity
  8
\U+30EC\U+30A4\U+30E4\U+30FC 1
370
    18
  0
ENDBLK
  5
166
330
163
100
AcDbEntity
  8
0
100
AcDbBlockEnd
  0
BLOCK
  5
178
330
176
100
AcDbEntity
  8
0
100
AcDbBlockBegin
  2
block 17
 70
     0
 71
     0
 10
0.0
 20
0.0
 30
0.0
  3
block 17
  1

  0
INSERT
  5
17B
330
176
100
AcDbEntity
  8
\U+30EC\U+30A4\U+30E4\U+30FC 1
100
AcDbBlockReference
  2
block 18
 10
0.0
 20
0.0
 30
0.0
  0
INSERT
  5
18E
330
176
100
AcDbEntity
  8
\U+30EC\U+30A4\U+30E4\U+30FC 1
100
AcDbBlockReference
  2
block 19
 10
0.0
 20
0.0
 30
0.0
  0
SPLINE
  5
1E0
330
176
100
AcDbEntity
  8
\U+30EC\U+30A4\U+30E4\U+30FC 1
 62
   250
420
  2234132
370
    18
100
AcDbSpline
210
0.0
220
0.0
230
1.0
 70
     8
 71
     3
 72
    32
 73
    28
 74
     0
 42
0.0000000001
 43
0.0000000001
 40
0.0
 40
0.0
 40
0.0
 40
0.0
 40
1.0
 40
1.0
 40
1.0
 40
2.0
 40
2.0
 40
2.0
 40
3.0
 40
3.0
 40
3.0
 40
4.0
 40
4.0
 40
4.0
 40
5.0
 40
5.0
 40
5.0
 40
6.0
 40
6.0
 40
6.0
 40
7.0
 40
7.0
 40
7.0
 40
8.0
 40
8.0
 40
8.0
 40
9.0
 40
9.0
 40
9.0
 40
9.0
 10
728.1010850684308
 20
187.5614572367082
 30
0.0
 10
709.3900701253893
 20
189.1110622082394
 30
0.0
 10
690.1361077756931
 20
190.9317963733221
 30
0.0
 10
676.4570026179304
 20
192.1851229376686
 30
0.0
 10
653.8165091721578
 20
194.2587272781857
 30
0.0
 10
619.9436189963269
 20
197.0241072485016
 30
0.0
 10
617.6619307512289
 20
197.3696505536251
 30
0.0
 10
615.3802425061308
 20
197.7151938587487
 30
0.0
 10
609.5886886652214
 20
194.0861278805118
 30
0.0
 10
608.1844668190762
 20
191.4936918176457
 30
0.0
 10
606.7805894827069
 20
188.9016002645553
 30
0.0
 10
603.445734853
 20
182.1616110108791
 30
0.0
 10
601.6908020550942
 20
169.5456630212234
 30
0.0
 10
599.9355247474127
 20
156.9300595413434
 30
0.0
 10
597.8295364879708
 20
134.8090868374715
 30
0.0
 10
598.3562919351631
 20
126.3410365484016
 30
0.0
 10
598.8827028725797
 20
117.872641749556
 30
0.0
 10
606.7805894827069
 20
106.6395559999461
 30
0.0
 10
609.0622777278048
 20
103.0104900217093
 30
0.0
 10
611.3436214631271
 20
99.38107953369662
 30
0.0
 10
628.2277010651216
 20
95.26797732046616
 30
0.0
 10
641.3552460718346
 20
92.98697809491973
 30
0.0
 10
650.3062990665707
 20
91.43151645720003
 30
0.0
 10
677.5101690025393
 20
88.14799378408674
 30
0.0
 10
698.5707406165106
 20
86.0740449337938
 30
0.0
 10
703.9671417445819
 20
85.54281085951611
 30
0.0
 10
710.0315473279218
 20
85.03396992066517
 30
0.0
 10
716.0677031096465
 20
84.57129329177091
 30
0.0
  0
SPLINE
  5
1E1
330
176
100
AcDbEntity
  8
\U+30EC\U+30A4\U+30E4\U+30FC 1
 62
   250
420
  2234132
370
    18
100
AcDbSpline
210
0.0
220
0.0
230
1.0
 70
     8
 71
     3
 72
    35
 73
    31
 74
     0
 42
0.0000000001
 43
0.0000000001
 40
0.0
 40
0.0
 40
0.0
 40
0.0
 40
1.0
 40
1.0
 40
1.0
 40
2.0
 40
2.0
 40
2.0
 40
3.0
 40
3.0
 40
3.0
 40
4.0
 40
4.0
 40
4.0
 40
5.0
 40
5.0
 40
5.0
 40
6.0
 40
6.0
 40
6.0
 40
7.0
 40
7.0
 40
7.0
 40
8.0
 40
8.0
 40
8.0
 40
9.0
 40
9.0
 40
9.0
 40
10.0
 40
10.0
 40
10.0
 40
10.0
 10
734.5496190517836
 20
83.2683573197098
 30
0.0
 10
744.0098574951463
 20
82.65168482103466
 30
0.0
 10
750.8721477192303
 20
82.27203504810728
 30
0.0
 10
750.8721477192303
 20
82.27203504810728
 30
0.0
 10
781.4101832653542
 20
79.67959898524111
 30
0.0
 10
825.9890592338269
 20
77.26010682982462
 30
0.0
 10
861.7925821932196
 20
75.70498970188072
 30
0.0
 10
897.5961051526122
 20
74.14952806416102
 30
0.0
 10
941.2978592319079
 20
72.07557921386808
 30
0.0
 10
957.795398865459
 20
72.07557921386808
 30
0.0
 10
974.2929384990101
 20
72.07557921386808
 30
0.0
 10
1008.867939597914
 20
70.17457427102482
 30
0.0
 10
1022.030969111534
 20
75.35910188698136
 30
0.0
 10
1035.193998625154
 20
80.5439740127137
 30
0.0
 10
1036.773575947179
 20
98.51704901599983
 30
0.0
 10
1037.826742331788
 20
113.0340019484988
 30
0.0
 10
1038.879564206621
 20
127.550610371222
 30
0.0
 10
1038.353153269205
 20
145.0055426717107
 30
0.0
 10
1033.614765812904
 20
153.819136265904
 30
0.0
 10
1028.875689337052
 20
162.6330743698732
 30
0.0
 10
1016.941181683921
 20
166.7806275606833
 30
0.0
 10
1005.358074002102
 20
167.4720586807062
 30
0.0
 10
993.7742773007318
 20
168.1631452909533
 30
0.0
 10
918.1306103389428
 20
173.3476729069099
 30
0.0
 10
879.1679327354993
 20
176.4585961823493
 30
0.0
 10
840.2052551320559
 20
179.5691749480129
 30
0.0
 10
787.904192539112
 20
183.716728138823
 30
0.0
 10
762.4555999108248
 20
185.0995903788688
 30
0.0
 10
757.6197161879741
 20
185.3621068280255
 30
0.0
 10
752.3342472077092
 20
185.70592758427
 30
0.0
 10
746.7890178564941
 20
186.104869904642
 30
0.0
  0
SPLINE
  5
1E2
330
176
100
AcDbEntity
  8
\U+30EC\U+30A4\U+30E4\U+30FC 1
 62
   250
420
  2234132
370
    18
100
AcDbSpline
210
0.0
220
0.0
230
1.0
 70
    11
 71
     3
 72
    65
 73
    61
 74
     0
 42
0.0000000001
 43
0.0000000001
 40
0.0
 40
0.0
 40
0.0
 40
0.0
 40
1.0
 40
1.0
 40
1.0
 40
2.0
 40
2.0
 40
2.0
 40
3.0
 40
3.0
 40
3.0
 40
4.0
 40
4.0
 40
4.0
 40
5.0
 40
5.0
 40
5.0
 40
6.0
 40
6.0
 40
6.0
 40
7.0
 40
7.0
 40
7.0
 40
8.0
 40
8.0
 40
8.0
 40
9.0
 40
9.0
 40
9.0
 40
10.0
 40
10.0
 40
10.0
 40
11.0
 40
11.0
 40
11.0
 40
12.0
 40
12.0
 40
12.0
 40
13.0
 40
13.0
 40
13.0
 40
14.0
 40
14.0
 40
14.0
 40
15.0
 40
15.0
 40
15.0
 40
16.0
 40
16.0
 40
16.0
 40
17.0
 40
17.0
 40
17.0
 40
18.0
 40
18.0
 40
18.0
 40
19.0
 40
19.0
 40
19.0
 40
20.0
 40
20.0
 40
20.0
 40
20.0
 10
1105.748222669106
 20
213.6146645215177
 30
0.0
 10
1096.62009164961
 20
212.9418369293878
 30
0.0
 10
1089.733685741221
 20
222.0551540285238
 30
0.0
 10
1084.819253789489
 20
230.0047171050204
 30
0.0
 10
1079.905166347532
 20
237.954280181517
 30
0.0
 10
1067.619947742641
 20
248.5269406909256
 30
0.0
 10
1050.638716383872
 20
259.2387831497559
 30
0.0
 10
1039.406319653813
 20
266.3243157085557
 30
0.0
 10
1029.226744798588
 20
273.5827921748052
 30
0.0
 10
1010.272161444059
 20
275.6567410250981
 30
0.0
 10
991.3172335797535
 20
277.7303453656153
 30
0.0
 10
956.0401215577774
 20
279.8042942159082
 30
0.0
 10
914.0939892959391
 20
285.507309044438
 30
0.0
 10
872.1478570341008
 20
291.2103238729678
 30
0.0
 10
823.3566600369684
 20
299.6785464169255
 30
0.0
 10
784.0429269719885
 20
306.7640789757253
 30
0.0
 10
744.3051023730037
 20
313.9262649596398
 30
0.0
 10
722.2013551579215
 20
318.2438337248053
 30
0.0
 10
711.9094701157867
 20
320.071285830516
 30
0.0
 10
701.203484323145
 20
321.9722907733593
 30
0.0
 10
699.4485515252393
 20
321.9722907733593
 30
0.0
 10
692.252431328409
 20
326.4655595241808
 30
0.0
 10
685.0570001511302
 20
330.9588282750024
 30
0.0
 10
681.3710900598869
 20
341.3278835069154
 30
0.0
 10
679.089401814789
 20
350.6603088234579
 30
0.0
 10
676.8080580794667
 20
359.9923896302245
 30
0.0
 10
678.5629908773724
 20
376.4103475055667
 30
0.0
 10
679.7915127378615
 20
387.297889950053
 30
0.0
 10
681.0200345983507
 20
398.1854323945394
 30
0.0
 10
690.8485539920396
 20
405.9623960733621
 30
0.0
 10
698.2200296647502
 20
407.3449138036321
 30
0.0
 10
705.591160827685
 20
408.7274315339021
 30
0.0
 10
764.5615881702669
 20
408.9002031864639
 30
0.0
 10
794.9246127502863
 20
405.6166805133506
 30
0.0
 10
825.2872928205301
 20
402.3331578402373
 30
0.0
 10
876.1844780771045
 20
396.4573713591458
 30
0.0
 10
912.1633565123774
 20
397.3214018768426
 30
0.0
 10
948.1425794574261
 20
398.1854323945394
 30
0.0
 10
989.9130117336084
 20
400.6049245499559
 30
0.0
 10
1024.137301880751
 20
413.2207002847236
 30
0.0
 10
1058.360903008343
 20
425.8364760194914
 30
0.0
 10
1083.63414016075
 20
450.7224841839035
 30
0.0
 10
1102.062657087638
 20
466.7947264992343
 30
0.0
 10
1120.490484994976
 20
482.866968814565
 30
0.0
 10
1151.555620498068
 20
502.0497898955594
 30
0.0
 10
1165.771471886521
 20
507.0615458589542
 30
0.0
 10
1179.98766778475
 20
512.073301822349
 30
0.0
 10
1195.432385543468
 20
509.6538096669324
 30
0.0
 10
1200.171117509544
 20
494.7914856841978
 30
0.0
 10
1204.90984947562
 20
479.9289894465753
 30
0.0
 10
1202.803516706402
 20
455.7342401472982
 30
0.0
 10
1200.697528446961
 20
435.6872162937192
 30
0.0
 10
1198.591540187519
 20
415.6401924401401
 30
0.0
 10
1191.746819962
 20
372.7811092724419
 30
0.0
 10
1185.077455212362
 20
340.8095685492301
 30
0.0
 10
1178.408090462724
 20
308.8380278260182
 30
0.0
 10
1151.906331449828
 20
259.2387831497559
 30
0.0
 10
1144.008789349477
 20
246.1046924573028
 30
0.0
 10
1136.11090273935
 20
232.9702572550738
 30
0.0
 10
1131.547870758929
 20
215.5156694643609
 30
0.0
 10
1105.748222669106
 20
213.6146645215177
 30
0.0
  0
SPLINE
  5
1E3
330
176
100
AcDbEntity
  8
\U+30EC\U+30A4\U+30E4\U+30FC 1
 62
   250
420
  2234132
370
    18
100
AcDbSpline
210
0.0
220
0.0
230
1.0
 70
     8
 71
     3
 72
    23
 73
    19
 74
     0
 42
0.0000000001
 43
0.0000000001
 40
0.0
 40
0.0
 40
0.0
 40
0.0
 40
1.0
 40
1.0
 40
1.0
 40
2.0
 40
2.0
 40
2.0
 40
3.0
 40
3.0
 40
3.0
 40
4.0
 40
4.0
 40
4.0
 40
5.0
 40
5.0
 40
5.0
 40
6.0
 40
6.0
 40
6.0
 40
6.0
 10
932.229672913401
 20
72.24817861154196
 30
0.0
 10
932.229672913401
 20
72.24817861154196
 30
0.0
 10
931.7618286378698
 20
62.10960041963651
 30
0.0
 10
931.7618286378698
 20
62.10960041963651
 30
0.0
 10
931.7618286378698
 20
62.10960041963651
 30
0.0
 10
971.9154765362407
 20
59.21537379317289
 30
0.0
 10
991.4343669035243
 20
57.96204722882643
 30
0.0
 10
1012.962782793027
 20
56.5791849887806
 30
0.0
 10
1035.428265272695
 20
56.46411872366468
 30
0.0
 10
1045.256440156608
 20
57.1555498436876
 30
0.0
 10
1055.084959550297
 20
57.84698096371051
 30
0.0
 10
1070.120055185593
 20
64.99004665506827
 30
0.0
 10
1078.544352733137
 20
75.8775890995546
 30
0.0
 10
1086.968994790457
 20
86.76547605381671
 30
0.0
 10
1089.250338525779
 20
100.0725106537195
 30
0.0
 10
1092.935904107246
 20
117.5270984444324
 30
0.0
 10
1096.621469688714
 20
134.9820307449211
 30
0.0
 10
1112.943653846385
 20
214.6516389466641
 30
0.0
 10
1112.943653846385
 20
214.6516389466641
 30
0.0
  0
SPLINE
  5
1E4
330
176
100
AcDbEntity
  8
\U+30EC\U+30A4\U+30E4\U+30FC 1
 62
   250
420
  2234132
370
    18
100
AcDbSpline
210
0.0
220
0.0
230
1.0
 70
     8
 71
     3
 72
    14
 73
    10
 74
     0
 42
0.0000000001
 43
0.0000000001
 40
0.0
 40
0.0
 40
0.0
 40
0.0
 40
1.0
 40
1.0
 40
1.0
 40
2.0
 40
2.0
 40
2.0
 40
3.0
 40
3.0
 40
3.0
 40
3.0
 10
1095.217592352344
 20
217.0711311020806
 30
0.0
 10
1095.217592352344
 20
217.0711311020806
 30
0.0
 10
1071.699632507619
 20
100.9365411714163
 30
0.0
 10
1069.242588786641
 20
94.0236080102904
 30
0.0
 10
1066.785545065662
 20
87.11101935894027
 30
0.0
 10
1061.520057652394
 20
80.88951731783726
 30
0.0
 10
1056.254914748901
 20
77.60599464472398
 30
0.0
 10
1050.989771845408
 20
74.3224719716107
 30
0.0
 10
1035.311131948924
 20
72.70913269155723
 30
0.0
 10
1016.47333740839
 20
73.7461071167037
 30
0.0
  0
SPLINE
  5
1E5
330
176
100
AcDbEntity
  8
\U+30EC\U+30A4\U+30E4\U+30FC 1
 62
   250
420
  2234132
370
    18
100
AcDbSpline
210
0.0
220
0.0
230
1.0
 70
     8
 71
     3
 72
    20
 73
    16
 74
     0
 42
0.0000000001
 43
0.0000000001
 40
0.0
 40
0.0
 40
0.0
 40
0.0
 40
1.0
 40
1.0
 40
1.0
 40
2.0
 40
2.0
 40
2.0
 40
3.0
 40
3.0
 40
3.0
 40
4.0
 40
4.0
 40
4.0
 40
5.0
 40
5.0
 40
5.0
 40
5.0
 10
744.4239582456534
 20
166.3885754358272
 30
0.0
 10
755.6925285021703
 20
165.6864645127547
 30
0.0
 10
766.1890523511279
 20
165.1021759330044
 30
0.0
 10
773.3369411793468
 20
164.7931506641152
 30
0.0
 10
793.3446909184852
 20
163.9291201464184
 30
0.0
 10
833.2726849137096
 20
157.9666894567141
 30
0.0
 10
852.6665182323791
 20
156.2386284213205
 30
0.0
 10
872.0600070412728
 20
154.5105673859269
 30
0.0
 10
976.8378322128164
 20
148.2890653448239
 30
0.0
 10
992.808960908951
 20
147.597634224801
 30
0.0
 10
1008.780434114861
 20
146.9065476145539
 30
0.0
 10
1016.59047073216
 20
143.3636090802661
 30
0.0
 10
1021.943463628481
 20
142.758649913968
 30
0.0
 10
1027.296456524802
 20
142.1540352574458
 30
0.0
 10
1035.018643149273
 20
143.6226804316648
 30
0.0
 10
1036.685725954351
 20
144.4005835054126
 30
0.0
  0
SPLINE
  5
1E6
330
176
100
AcDbEntity
  8
\U+30EC\U+30A4\U+30E4\U+30FC 1
 62
   250
420
  2234132
370
    18
100
AcDbSpline
210
0.0
220
0.0
230
1.0
 70
     8
 71
     3
 72
    14
 73
    10
 74
     0
 42
0.0000000001
 43
0.0000000001
 40
0.0
 40
0.0
 40
0.0
 40
0.0
 40
1.0
 40
1.0
 40
1.0
 40
2.0
 40
2.0
 40
2.0
 40
3.0
 40
3.0
 40
3.0
 40
3.0
 10
606.2538340355145
 20
187.1731947193859
 30
0.0
 10
610.0275941195857
 20
183.716728138823
 30
0.0
 10
616.5212588835677
 20
179.2236316428893
 30
0.0
 10
631.3513712022655
 20
176.8041394874728
 30
0.0
 10
646.1818280307389
 20
174.3846473320563
 30
0.0
 10
675.1406307646132
 20
172.1380990840895
 30
0.0
 10
691.1117594607479
 20
170.4096935389202
 30
0.0
 10
698.2713616213438
 20
169.6352355629303
 30
0.0
 10
711.5150064225002
 20
168.5999836866629
 30
0.0
 10
725.751528397501
 20
167.6157192572132
 30
0.0
  0
SPLINE
  5
1E7
330
176
100
AcDbEntity
  8
\U+30EC\U+30A4\U+30E4\U+30FC 1
  6
AI-Linetype-15
 62
   250
420
  2234132
370
    18
100
AcDbSpline
210
0.0
220
0.0
230
1.0
 70
     8
 71
     3
 72
    17
 73
    13
 74
     0
 42
0.0000000001
 43
0.0000000001
 40
0.0
 40
0.0
 40
0.0
 40
0.0
 40
1.0
 40
1.0
 40
1.0
 40
2.0
 40
2.0
 40
2.0
 40
3.0
 40
3.0
 40
3.0
 40
4.0
 40
4.0
 40
4.0
 40
4.0
 10
726.1701077750934
 20
170.981235256966
 30
0.0
 10
718.3325103757305
 20
171.4363326707927
 30
0.0
 10
710.7629415819371
 20
171.9341492968182
 30
0.0
 10
706.2932717507576
 20
172.3971704354882
 30
0.0
 10
696.2893968811884
 20
173.4341448606347
 30
0.0
 10
670.1386933298287
 20
175.5942211548767
 30
0.0
 10
660.2226684530875
 20
176.8041394874728
 30
0.0
 10
650.3062990665707
 20
178.0137133102932
 30
0.0
 10
631.8781266494577
 20
181.8157231959797
 30
0.0
 10
625.2966118926478
 20
183.1985854360255
 30
0.0
 10
618.7150971358377
 20
184.5811031662955
 30
0.0
 10
608.9744277349769
 20
189.2471435696789
 30
0.0
 10
608.1844668190762
 20
191.4936918176457
 30
0.0
  0
SPLINE
  5
1E9
330
176
100
AcDbEntity
  8
\U+30EC\U+30A4\U+30E4\U+30FC 1
  6
AI-Linetype-16
 62
   250
420
  2234132
370
    18
100
AcDbSpline
210
0.0
220
0.0
230
1.0
 70
     8
 71
     3
 72
    32
 73
    28
 74
     0
 42
0.0000000001
 43
0.0000000001
 40
0.0
 40
0.0
 40
0.0
 40
0.0
 40
1.0
 40
1.0
 40
1.0
 40
2.0
 40
2.0
 40
2.0
 40
3.0
 40
3.0
 40
3.0
 40
4.0
 40
4.0
 40
4.0
 40
5.0
 40
5.0
 40
5.0
 40
6.0
 40
6.0
 40
6.0
 40
7.0
 40
7.0
 40
7.0
 40
8.0
 40
8.0
 40
8.0
 40
9.0
 40
9.0
 40
9.0
 40
9.0
 10
1035.808604065174
 20
148.5481366962227
 30
0.0
 10
1035.808604065174
 20
148.5481366962227
 30
0.0
 10
1030.455611168853
 20
147.7705781322507
 30
0.0
 10
1027.032906546318
 20
147.7705781322507
 30
0.0
 10
1023.610546433559
 20
147.7705781322507
 30
0.0
 10
1010.974272367131
 20
150.0171263802175
 30
0.0
 10
1005.708784953863
 20
150.9676288516391
 30
0.0
 10
1000.44364205037
 20
151.9181313230608
 30
0.0
 10
979.2952204435704
 20
152.5230904893589
 30
0.0
 10
972.8012111698126
 20
152.8686337944824
 30
0.0
 10
966.3072018960548
 20
153.214177099606
 30
0.0
 10
942.7017365682772
 20
153.9056082196289
 30
0.0
 10
931.3814898453909
 20
154.7696387373257
 30
0.0
 10
920.0612431225046
 20
155.6336692550225
 30
0.0
 10
904.4411698879063
 20
156.2386284213205
 30
0.0
 10
893.033073172192
 20
157.1026589390173
 30
0.0
 10
881.6249764564776
 20
157.9666894567141
 30
0.0
 10
847.3135253360582
 20
159.8676943995574
 30
0.0
 10
835.6422231516356
 20
161.4231560372771
 30
0.0
 10
823.9709209672129
 20
162.9786176749968
 30
0.0
 10
800.8040165840238
 20
165.5707092280872
 30
0.0
 10
788.4306034765286
 20
167.1261708658069
 30
0.0
 10
776.0571903690334
 20
168.6816325035266
 30
0.0
 10
760.4371171344351
 20
169.113647762375
 30
0.0
 10
751.1353531879386
 20
169.6321349749482
 30
0.0
 10
749.4972092040277
 20
169.7234300655342
 30
0.0
 10
747.3553919279029
 20
169.8364292719953
 30
0.0
 10
744.8835342865655
 20
169.9659649476947
 30
0.0
  0
SPLINE
  5
1EB
330
176
100
AcDbEntity
  8
\U+30EC\U+30A4\U+30E4\U+30FC 1
  6
AI-Linetype-17
 62
   250
420
  2234132
370
    18
100
AcDbSpline
210
0.0
220
0.0
230
1.0
 70
     8
 71
     3
 72
    29
 73
    25
 74
     0
 42
0.0000000001
 43
0.0000000001
 40
0.0
 40
0.0
 40
0.0
 40
0.0
 40
1.0
 40
1.0
 40
1.0
 40
2.0
 40
2.0
 40
2.0
 40
3.0
 40
3.0
 40
3.0
 40
4.0
 40
4.0
 40
4.0
 40
5.0
 40
5.0
 40
5.0
 40
6.0
 40
6.0
 40
6.0
 40
7.0
 40
7.0
 40
7.0
 40
8.0
 40
8.0
 40
8.0
 40
8.0
 10
743.8958247593579
 20
161.6178040606019
 30
0.0
 10
752.3383813250188
 20
161.0407501861433
 30
0.0
 10
761.0503445353522
 20
160.5642931662172
 30
0.0
 10
769.8270755835355
 20
160.1271102607319
 30
0.0
 10
785.4471488181338
 20
159.3495516967599
 30
0.0
 10
804.6652821511473
 20
157.5346741978657
 30
0.0
 10
814.9323624894247
 20
156.1521564675957
 30
0.0
 10
825.1994428277021
 20
154.7696387373257
 30
0.0
 10
840.5563105935921
 20
153.3871210070556
 30
0.0
 10
859.4233884650693
 20
151.9181313230608
 30
0.0
 10
878.2904663365465
 20
150.4491416390659
 30
0.0
 10
910.9348346518883
 20
148.1161214373743
 30
0.0
 10
921.0265595142854
 20
147.6841061785259
 30
0.0
 10
931.1182843766826
 20
147.2520909196775
 30
0.0
 10
959.9013871249009
 20
145.9560451431323
 30
0.0
 10
970.1684674631783
 20
145.3510859768342
 30
0.0
 10
980.4355478014558
 20
144.7461268105361
 30
0.0
 10
993.3353718463675
 20
143.450081033991
 30
0.0
 10
1001.847519386739
 20
142.3266346551196
 30
0.0
 10
1010.359666927111
 20
141.2035327860241
 30
0.0
 10
1016.502620739333
 20
139.7345431020293
 30
0.0
 10
1022.820585517658
 20
138.611096723158
 30
0.0
 10
1029.13889480576
 20
137.4876503442867
 30
0.0
 10
1035.54505408669
 20
138.8701680745567
 30
0.0
 10
1037.124631408715
 20
140.7711730173999
 30
0.0
  0
SPLINE
  5
1ED
330
176
100
AcDbEntity
  8
\U+30EC\U+30A4\U+30E4\U+30FC 1
  6
AI-Linetype-18
 62
   250
420
  2234132
370
    18
100
AcDbSpline
210
0.0
220
0.0
230
1.0
 70
     8
 71
     3
 72
    20
 73
    16
 74
     0
 42
0.0000000001
 43
0.0000000001
 40
0.0
 40
0.0
 40
0.0
 40
0.0
 40
1.0
 40
1.0
 40
1.0
 40
2.0
 40
2.0
 40
2.0
 40
3.0
 40
3.0
 40
3.0
 40
4.0
 40
4.0
 40
4.0
 40
5.0
 40
5.0
 40
5.0
 40
5.0
 10
604.4110512447808
 20
182.1616110108791
 30
0.0
 10
607.3948504129514
 20
179.3101035966142
 30
0.0
 10
613.4499542323449
 20
176.3721242286244
 30
0.0
 10
618.4515471573536
 20
174.557591239506
 30
0.0
 10
623.453829101914
 20
172.7427137406118
 30
0.0
 10
637.3189695386067
 20
170.0641502337966
 30
0.0
 10
646.5328834922751
 20
169.113647762375
 30
0.0
 10
655.7471419557195
 20
168.1631452909533
 30
0.0
 10
673.2099979810515
 20
166.0030689967113
 30
0.0
 10
685.3202056198385
 20
165.4845817841381
 30
0.0
 10
697.4300687488495
 20
164.9660945715649
 30
0.0
 10
711.2952091855421
 20
164.4476073589916
 30
0.0
 10
724.8967996437507
 20
163.1515615824464
 30
0.0
 10
724.9849941463546
 20
163.1429488380516
 30
0.0
 10
725.0731886489583
 20
163.1346806034325
 30
0.0
 10
725.1613831515622
 20
163.1260678590375
 30
0.0
  0
SPLINE
  5
1EF
330
176
100
AcDbEntity
  8
\U+30EC\U+30A4\U+30E4\U+30FC 1
 62
   250
420
  2234132
370
    18
100
AcDbSpline
210
0.0
220
0.0
230
1.0
 70
     8
 71
     3
 72
    17
 73
    13
 74
     0
 42
0.0000000001
 43
0.0000000001
 40
0.0
 40
0.0
 40
0.0
 40
0.0
 40
1.0
 40
1.0
 40
1.0
 40
2.0
 40
2.0
 40
2.0
 40
3.0
 40
3.0
 40
3.0
 40
4.0
 40
4.0
 40
4.0
 40
4.0
 10
734.5317045434422
 20
83.12951988006395
 30
0.0
 10
734.5317045434422
 20
83.12951988006395
 30
0.0
 10
734.2578192716842
 20
80.83163967550351
 30
0.0
 10
734.2578192716842
 20
80.83163967550351
 30
0.0
 10
733.5553638388358
 20
75.01355858185781
 30
0.0
 10
730.0930405920843
 20
71.67215826641076
 30
0.0
 10
724.9557108154119
 20
71.67215826641076
 30
0.0
 10
719.8180365289636
 20
71.67215826641076
 30
0.0
 10
715.6536023591395
 20
75.77285812771257
 30
0.0
 10
715.6536023591395
 20
80.83163967550351
 30
0.0
 10
715.6536023591395
 20
80.83163967550351
 30
0.0
 10
742.9156944472178
 20
314.4259763894321
 30
0.0
 10
742.9156944472178
 20
314.4259763894321
 30
0.0
  0
POLYLINE
  5
1F0
330
176
100
AcDbEntity
  8
\U+30EC\U+30A4\U+30E4\U+30FC 1
 62
   250
420
  2234132
370
    18
100
AcDb2dPolyline
 66
     1
 10
0.0
 20
0.0
 30
0.0
  0
VERTEX
  5
1F1
330
1F0
100
AcDbEntity
  8
\U+30EC\U+30A4\U+30E4\U+30FC 1
 62
   250
420
  2234132
370
    18
100
AcDbVertex
100
AcDb2dVertex
 10
761.6367001737574
 20
310.5085557288539
 30
0.0
  0
VERTEX
  5
1F2
330
1F0
100
AcDbEntity
  8
\U+30EC\U+30A4\U+30E4\U+30FC 1
 62
   250
420
  2234132
370
    18
100
AcDbVertex
100
AcDb2dVertex
 10
734.5317045434422
 20
83.12951988006395
 30
0.0
  0
SEQEND
  5
1F3
330
1F0
100
AcDbEntity
  8
\U+30EC\U+30A4\U+30E4\U+30FC 1
370
    18
  0
SPLINE
  5
1F4
330
176
100
AcDbEntity
  8
\U+30EC\U+30A4\U+30E4\U+30FC 1
 62
   250
420
  2234132
370
    18
100
AcDbSpline
210
0.0
220
0.0
230
1.0
 70
     8
 71
     3
 72
    29
 73
    25
 74
     0
 42
0.0000000001
 43
0.0000000001
 40
0.0
 40
0.0
 40
0.0
 40
0.0
 40
1.0
 40
1.0
 40
1.0
 40
2.0
 40
2.0
 40
2.0
 40
3.0
 40
3.0
 40
3.0
 40
4.0
 40
4.0
 40
4.0
 40
5.0
 40
5.0
 40
5.0
 40
6.0
 40
6.0
 40
6.0
 40
7.0
 40
7.0
 40
7.0
 40
8.0
 40
8.0
 40
8.0
 40
8.0
 10
1196.543774080186
 20
501.7617797229938
 30
0.0
 10
1195.139896743817
 20
502.1073230281174
 30
0.0
 10
1188.236954366189
 20
501.4160641629824
 30
0.0
 10
1180.514423231942
 20
496.2315365470258
 30
0.0
 10
1172.792236607471
 20
491.0470089310693
 30
0.0
 10
1154.656897499785
 20
476.7607052934658
 30
0.0
 10
1138.392590984448
 20
461.2069501907083
 30
0.0
 10
1122.128973488662
 20
445.6531950879508
 30
0.0
 10
1075.210187122982
 20
404.7526499956538
 30
0.0
 10
1046.075684403451
 20
394.3834225088528
 30
0.0
 10
1016.941870703473
 20
384.0143672769397
 30
0.0
 10
966.7467963699708
 20
375.3732008255323
 30
0.0
 10
942.4095922784021
 20
372.0321450198611
 30
0.0
 10
918.0723881868333
 20
368.6909169593019
 30
0.0
 10
883.9070092113515
 20
365.8108152336459
 30
0.0
 10
853.1347070176861
 20
368.575850694186
 30
0.0
 10
822.3620603142449
 20
371.3408861547261
 30
0.0
 10
783.2825938968065
 20
376.7557185558023
 30
0.0
 10
758.3604122059357
 20
379.4056877512265
 30
0.0
 10
733.4385750248409
 20
382.0558292015385
 30
0.0
 10
705.0061832283831
 20
382.8621543317894
 30
0.0
 10
696.5822301906152
 20
383.207697636913
 30
0.0
 10
688.1575881332957
 20
383.5534131969245
 30
0.0
 10
681.8392788451939
 20
382.2859617317703
 30
0.0
 10
678.9143908486844
 20
379.0601444461029
 30
0.0
  0
SPLINE
  5
1F5
330
176
100
AcDbEntity
  8
\U+30EC\U+30A4\U+30E4\U+30FC 1
  6
AI-Linetype-19
 62
   250
420
  2234132
370
    18
100
AcDbSpline
210
0.0
220
0.0
230
1.0
 70
     8
 71
     3
 72
    38
 73
    34
 74
     0
 42
0.0000000001
 43
0.0000000001
 40
0.0
 40
0.0
 40
0.0
 40
0.0
 40
1.0
 40
1.0
 40
1.0
 40
2.0
 40
2.0
 40
2.0
 40
3.0
 40
3.0
 40
3.0
 40
4.0
 40
4.0
 40
4.0
 40
5.0
 40
5.0
 40
5.0
 40
6.0
 40
6.0
 40
6.0
 40
7.0
 40
7.0
 40
7.0
 40
8.0
 40
8.0
 40
8.0
 40
9.0
 40
9.0
 40
9.0
 40
10.0
 40
10.0
 40
10.0
 40
11.0
 40
11.0
 40
11.0
 40
11.0
 10
1191.863953285771
 20
506.0245714338077
 30
0.0
 10
1189.757620516553
 20
506.0245714338077
 30
0.0
 10
1179.57873468088
 20
502.7987541481403
 30
0.0
 10
1173.026158745236
 20
497.3837494921761
 30
0.0
 10
1166.473927319369
 20
491.968572581324
 30
0.0
 10
1153.252331143864
 20
479.9866948340211
 30
0.0
 10
1140.849634705426
 20
468.6957314420775
 30
0.0
 10
1128.447282776764
 20
457.4047680501339
 30
0.0
 10
1106.80173356349
 20
438.8555004468287
 30
0.0
 10
1093.345870740444
 20
428.2559681749079
 30
0.0
 10
1079.890007917397
 20
417.6564359029872
 30
0.0
 10
1063.392468283846
 20
407.2872084161862
 30
0.0
 10
1052.511127015324
 20
401.872203760222
 30
0.0
 10
1041.629441237026
 20
396.4573713591458
 30
0.0
 10
1024.547268513949
 20
393.0009047785828
 30
0.0
 10
1007.113006800008
 20
388.5076360277612
 30
0.0
 10
989.6794341056186
 20
384.0143672769397
 30
0.0
 10
954.6951553930692
 20
377.6776267158329
 30
0.0
 10
932.5810728847132
 20
375.2581345604164
 30
0.0
 10
910.4673348861329
 20
372.8386424049999
 30
0.0
 10
881.566754304368
 20
371.8016679798534
 30
0.0
 10
865.7709810841137
 20
372.4929268449885
 30
0.0
 10
849.9755523736352
 20
373.1841857101235
 30
0.0
 10
820.9585274876513
 20
376.8711293306941
 30
0.0
 10
801.7696774855805
 20
379.1753829661067
 30
0.0
 10
782.5808274835097
 20
381.4796366015194
 30
0.0
 10
748.4154485080278
 20
385.857839087225
 30
0.0
 10
734.7256635472154
 20
386.7794027374798
 30
0.0
 10
721.0362230961789
 20
387.7011386426224
 30
0.0
 10
704.1869389815398
 20
387.7009663877345
 30
0.0
 10
695.8801192675426
 20
387.5857278677307
 30
0.0
 10
687.5729550437695
 20
387.4706616026148
 30
0.0
 10
681.7224900311991
 20
386.7794027374798
 30
0.0
 10
679.616501771757
 20
384.2446720620595
 30
0.0
  0
SPLINE
  5
1F7
330
176
100
AcDbEntity
  8
\U+30EC\U+30A4\U+30E4\U+30FC 1
  6
AI-Linetype-20
 62
   250
420
  2234132
370
    18
100
AcDbSpline
210
0.0
220
0.0
230
1.0
 70
     8
 71
     3
 72
    32
 73
    28
 74
     0
 42
0.0000000001
 43
0.0000000001
 40
0.0
 40
0.0
 40
0.0
 40
0.0
 40
1.0
 40
1.0
 40
1.0
 40
2.0
 40
2.0
 40
2.0
 40
3.0
 40
3.0
 40
3.0
 40
4.0
 40
4.0
 40
4.0
 40
5.0
 40
5.0
 40
5.0
 40
6.0
 40
6.0
 40
6.0
 40
7.0
 40
7.0
 40
7.0
 40
8.0
 40
8.0
 40
8.0
 40
9.0
 40
9.0
 40
9.0
 40
9.0
 10
1199.469351096247
 20
496.9227954121608
 30
0.0
 10
1197.36301832703
 20
497.4989880121799
 30
0.0
 10
1188.588354337501
 20
495.7707547218984
 30
0.0
 10
1183.907844523534
 20
493.0057192613584
 30
0.0
 10
1179.227334709567
 20
490.2405115459304
 30
0.0
 10
1166.942116104676
 20
480.4473044042606
 30
0.0
 10
1153.135542329869
 20
467.1979751918037
 30
0.0
 10
1139.328624045286
 20
453.9484737244588
 30
0.0
 10
1122.363240136204
 20
439.8923026170872
 30
0.0
 10
1107.854555438324
 20
427.6797755748888
 30
0.0
 10
1093.345870740444
 20
415.4674207875784
 30
0.0
 10
1072.401743430692
 20
399.4527116048055
 30
0.0
 10
1040.693408176188
 20
387.7011386426224
 30
0.0
 10
1008.985072921684
 20
375.9493934255514
 30
0.0
 10
977.0428155294151
 20
372.1473835398649
 30
0.0
 10
958.7899985881825
 20
369.382175824437
 30
0.0
 10
940.5371816469499
 20
366.6171403638969
 30
0.0
 10
889.5232075763806
 20
361.0870694428168
 30
0.0
 10
856.9956280750337
 20
364.0825819433645
 30
0.0
 10
824.4683930834626
 20
367.0780944439122
 30
0.0
 10
789.1330589093769
 20
371.1104091147184
 30
0.0
 10
765.3808324171101
 20
373.8754445752585
 30
0.0
 10
741.628950434619
 20
376.6406522906864
 30
0.0
 10
715.4203692409255
 20
378.36871332608
 30
0.0
 10
703.0176728024876
 20
378.9449059260991
 30
0.0
 10
690.614631854274
 20
379.5209262712303
 30
0.0
 10
682.1903343067303
 20
379.4056877512265
 30
0.0
 10
678.680124201143
 20
375.2581345604164
 30
0.0
  0
ENDBLK
  5
179
330
176
100
AcDbEntity
  8
0
100
AcDbBlockEnd
  0
BLOCK
  5
17C
330
17A
100
AcDbEntity
  8
0
100
AcDbBlockBegin
  2
block 18
 70
     0
 71
     0
 10
0.0
 20
0.0
 30
0.0
  3
block 18
  1

  0
SPLINE
  5
17E
330
17A
100
AcDbEntity
  8
\U+30EC\U+30A4\U+30E4\U+30FC 1
 62
   250
420
  2234132
370
    18
100
AcDbSpline
210
0.0
220
0.0
230
1.0
 70
     8
 71
     3
 72
    26
 73
    22
 74
     0
 42
0.0000000001
 43
0.0000000001
 40
0.0
 40
0.0
 40
0.0
 40
0.0
 40
1.0
 40
1.0
 40
1.0
 40
2.0
 40
2.0
 40
2.0
 40
3.0
 40
3.0
 40
3.0
 40
4.0
 40
4.0
 40
4.0
 40
5.0
 40
5.0
 40
5.0
 40
6.0
 40
6.0
 40
6.0
 40
7.0
 40
7.0
 40
7.0
 40
7.0
 10
765.7708174833114
 20
81.71117313311112
 30
0.0
 10
765.7708174833114
 20
81.71117313311112
 30
0.0
 10
763.0994886817879
 20
65.25256310422495
 30
0.0
 10
763.0994886817879
 20
65.25256310422495
 30
0.0
 10
763.0994886817879
 20
65.25256310422495
 30
0.0
 10
633.7040284611775
 20
76.44706375894566
 30
0.0
 10
625.0010225050146
 20
76.98139842120553
 30
0.0
 10
616.2983610586276
 20
77.51607759324118
 30
0.0
 10
608.521052870029
 20
69.09419161412804
 30
0.0
 10
604.3132104684547
 20
65.78173011984786
 30
0.0
 10
604.0923797021693
 20
65.60740817329501
 30
0.0
 10
596.9455244032778
 20
59.72869335910918
 30
0.0
 10
585.4371753428068
 20
41.87240716981795
 30
0.0
 10
578.5511139441929
 20
31.18640294417239
 30
0.0
 10
460.2485239944434
 20
-159.7653749961459
 30
0.0
 10
446.381316499096
 20
-181.8846251511389
 30
0.0
 10
432.5141090037486
 20
-204.0028417768046
 30
0.0
 10
423.6746771763705
 20
-216.6890697607227
 30
0.0
 10
394.8054469842031
 20
-220.1386461457697
 30
0.0
 10
359.0370640219417
 20
-224.412634424297
 30
0.0
 10
334.7687618855322
 20
-182.5323035296357
 30
0.0
 10
334.7687618855322
 20
-182.5323035296357
 30
0.0
  0
SPLINE
  5
17F
330
17A
100
AcDbEntity
  8
\U+30EC\U+30A4\U+30E4\U+30FC 1
 62
   250
420
  2234132
370
    18
100
AcDbSpline
210
0.0
220
0.0
230
1.0
 70
    11
 71
     3
 72
    17
 73
    13
 74
     0
 42
0.0000000001
 43
0.0000000001
 40
0.0
 40
0.0
 40
0.0
 40
0.0
 40
1.0
 40
1.0
 40
1.0
 40
2.0
 40
2.0
 40
2.0
 40
3.0
 40
3.0
 40
3.0
 40
4.0
 40
4.0
 40
4.0
 40
4.0
 10
333.0334661448469
 20
-175.962157595427
 30
0.0
 10
333.0334661448469
 20
-183.422516790293
 30
0.0
 10
339.1760754472925
 20
-189.4707304141706
 30
0.0
 10
346.7525344366019
 20
-189.4707304141706
 30
0.0
 10
354.3296824454628
 20
-189.4707304141706
 30
0.0
 10
360.471602728357
 20
-183.422516790293
 30
0.0
 10
360.471602728357
 20
-175.962157595427
 30
0.0
 10
360.471602728357
 20
-168.5014538907852
 30
0.0
 10
354.3296824454628
 20
-162.4528957571318
 30
0.0
 10
346.7525344366019
 20
-162.4528957571318
 30
0.0
 10
339.1760754472925
 20
-162.4528957571318
 30
0.0
 10
333.0334661448469
 20
-168.5014538907852
 30
0.0
 10
333.0334661448469
 20
-175.962157595427
 30
0.0
  0
SPLINE
  5
180
330
17A
100
AcDbEntity
  8
\U+30EC\U+30A4\U+30E4\U+30FC 1
 62
   250
420
  2234132
370
    18
100
AcDbSpline
210
0.0
220
0.0
230
1.0
 70
     8
 71
     3
 72
    20
 73
    16
 74
     0
 42
0.0000000001
 43
0.0000000001
 40
0.0
 40
0.0
 40
0.0
 40
0.0
 40
1.0
 40
1.0
 40
1.0
 40
2.0
 40
2.0
 40
2.0
 40
3.0
 40
3.0
 40
3.0
 40
4.0
 40
4.0
 40
4.0
 40
5.0
 40
5.0
 40
5.0
 40
5.0
 10
622.323148017751
 20
97.24236284555401
 30
0.0
 10
615.7240632623754
 20
97.77600848826228
 30
0.0
 10
606.8301988904215
 20
93.69701274283564
 30
0.0
 10
596.5014513022766
 20
86.96563623355429
 30
0.0
 10
586.1727037141316
 20
80.23357070472136
 30
0.0
 10
578.1390802523407
 20
70.83017637436492
 30
0.0
 10
567.7149034563002
 20
54.80151454567238
 30
0.0
 10
557.2907266602598
 20
38.77354173653141
 30
0.0
 10
434.9721862540542
 20
-157.2001552055677
 30
0.0
 10
424.16560360688
 20
-174.4042843892767
 30
0.0
 10
413.35867644993
 20
-191.6077245534342
 30
0.0
 10
400.8302339433265
 20
-196.2031404527793
 30
0.0
 10
386.7714790126365
 20
-194.0654572939641
 30
0.0
 10
372.7127240819464
 20
-191.9281186449246
 30
0.0
 10
358.1110217446016
 20
-168.4039576242348
 30
0.0
 10
358.1110217446016
 20
-168.4039576242348
 30
0.0
  0
POLYLINE
  5
181
330
17A
100
AcDbEntity
  8
\U+30EC\U+30A4\U+30E4\U+30FC 1
 62
   250
420
  2234132
370
    18
100
AcDb2dPolyline
 66
     1
 10
0.0
 20
0.0
 30
0.0
  0
VERTEX
  5
182
330
181
100
AcDbEntity
  8
\U+30EC\U+30A4\U+30E4\U+30FC 1
 62
   250
420
  2234132
370
    18
100
AcDbVertex
100
AcDb2dVertex
 10
750.0928666063793
 20
66.21408988847206
 30
0.0
  0
VERTEX
  5
183
330
181
100
AcDbEntity
  8
\U+30EC\U+30A4\U+30E4\U+30FC 1
 62
   250
420
  2234132
370
    18
100
AcDbVertex
100
AcDb2dVertex
 10
749.8062344729169
 20
59.58916689991173
 30
0.0
  0
VERTEX
  5
184
330
181
100
AcDbEntity
  8
\U+30EC\U+30A4\U+30E4\U+30FC 1
 62
   250
420
  2234132
370
    18
100
AcDbVertex
100
AcDb2dVertex
 10
736.1302299031364
 20
61.0853728561945
 30
0.0
  0
VERTEX
  5
185
330
181
100
AcDbEntity
  8
\U+30EC\U+30A4\U+30E4\U+30FC 1
 62
   250
420
  2234132
370
    18
100
AcDbVertex
100
AcDb2dVertex
 10
736.5122912444943
 20
67.4963552739854
 30
0.0
  0
SEQEND
  5
186
330
181
100
AcDbEntity
  8
\U+30EC\U+30A4\U+30E4\U+30FC 1
370
    18
  0
POLYLINE
  5
187
330
17A
100
AcDbEntity
  8
\U+30EC\U+30A4\U+30E4\U+30FC 1
 62
   250
420
  2234132
370
    18
100
AcDb2dPolyline
 66
     1
 10
0.0
 20
0.0
 30
0.0
  0
VERTEX
  5
188
330
187
100
AcDbEntity
  8
\U+30EC\U+30A4\U+30E4\U+30FC 1
 62
   250
420
  2234132
370
    18
100
AcDbVertex
100
AcDb2dVertex
 10
663.9247705037932
 20
73.90802671132789
 30
0.0
  0
VERTEX
  5
189
330
187
100
AcDbEntity
  8
\U+30EC\U+30A4\U+30E4\U+30FC 1
 62
   250
420
  2234132
370
    18
100
AcDbVertex
100
AcDb2dVertex
 10
663.637793860555
 20
67.28344823254336
 30
0.0
  0
VERTEX
  5
18A
330
187
100
AcDbEntity
  8
\U+30EC\U+30A4\U+30E4\U+30FC 1
 62
   250
420
  2234132
370
    18
100
AcDbVertex
100
AcDb2dVertex
 10
649.9621338005502
 20
68.77862065949874
 30
0.0
  0
VERTEX
  5
18B
330
187
100
AcDbEntity
  8
\U+30EC\U+30A4\U+30E4\U+30FC 1
 62
   250
420
  2234132
370
    18
100
AcDbVertex
100
AcDb2dVertex
 10
650.3448841614597
 20
75.19063660661703
 30
0.0
  0
SEQEND
  5
18C
330
187
100
AcDbEntity
  8
\U+30EC\U+30A4\U+30E4\U+30FC 1
370
    18
  0
ENDBLK
  5
17D
330
17A
100
AcDbEntity
  8
0
100
AcDbBlockEnd
  0
BLOCK
  5
18F
330
18D
100
AcDbEntity
  8
0
100
AcDbBlockBegin
  2
block 19
 70
     0
 71
     0
 10
0.0
 20
0.0
 30
0.0
  3
block 19
  1

  0
SPLINE
  5
191
330
18D
100
AcDbEntity
  8
\U+30EC\U+30A4\U+30E4\U+30FC 1
 62
   250
420
  2234132
370
    18
100
AcDbSpline
210
0.0
220
0.0
230
1.0
 70
     8
 71
     3
 72
    20
 73
    16
 74
     0
 42
0.0000000001
 43
0.0000000001
 40
0.0
 40
0.0
 40
0.0
 40
0.0
 40
1.0
 40
1.0
 40
1.0
 40
2.0
 40
2.0
 40
2.0
 40
3.0
 40
3.0
 40
3.0
 40
4.0
 40
4.0
 40
4.0
 40
5.0
 40
5.0
 40
5.0
 40
5.0
 10
1115.384161098125
 20
-253.0152140499981
 30
0.0
 10
1115.384161098125
 20
-253.0152140499981
 30
0.0
 10
1115.384161098125
 20
-257.0280639184719
 30
0.0
 10
1115.384161098125
 20
-258.7354543673177
 30
0.0
 10
1115.384161098125
 20
-260.4431893259393
 30
0.0
 10
1113.102128343251
 20
-263.6023439699902
 30
0.0
 10
1111.257967513414
 20
-263.6023439699902
 30
0.0
 10
1109.414840212904
 20
-263.6023439699902
 30
0.0
 10
1069.38521583382
 20
-263.6023439699902
 30
0.0
 10
1066.839633100462
 20
-263.6023439699902
 30
0.0
 10
1064.293705857329
 20
-263.6023439699902
 30
0.0
 10
1061.748123123971
 20
-261.0409137869457
 30
0.0
 10
1061.748123123971
 20
-260.1017801381253
 30
0.0
 10
1061.748123123971
 20
-259.162646489305
 30
0.0
 10
1061.748123123971
 20
-253.0724026727803
 30
0.0
 10
1061.748123123971
 20
-253.0724026727803
 30
0.0
  0
SPLINE
  5
192
330
18D
100
AcDbEntity
  8
\U+30EC\U+30A4\U+30E4\U+30FC 1
 62
   250
420
  2234132
370
    18
100
AcDbSpline
210
0.0
220
0.0
230
1.0
 70
     8
 71
     3
 72
    20
 73
    16
 74
     0
 42
0.0000000001
 43
0.0000000001
 40
0.0
 40
0.0
 40
0.0
 40
0.0
 40
1.0
 40
1.0
 40
1.0
 40
2.0
 40
2.0
 40
2.0
 40
3.0
 40
3.0
 40
3.0
 40
4.0
 40
4.0
 40
4.0
 40
5.0
 40
5.0
 40
5.0
 40
5.0
 10
609.0474638074456
 20
-253.0152140499981
 30
0.0
 10
609.0474638074456
 20
-253.0152140499981
 30
0.0
 10
609.0474638074456
 20
-257.0280639184719
 30
0.0
 10
609.0474638074456
 20
-258.7354543673177
 30
0.0
 10
609.0474638074456
 20
-260.4431893259393
 30
0.0
 10
606.7647420330202
 20
-263.6023439699902
 30
0.0
 10
604.9216147325108
 20
-263.6023439699902
 30
0.0
 10
603.0781429222254
 20
-263.6023439699902
 30
0.0
 10
563.0485185431412
 20
-263.6023439699902
 30
0.0
 10
560.5029358097833
 20
-263.6023439699902
 30
0.0
 10
557.9570085666496
 20
-263.6023439699902
 30
0.0
 10
555.4117703430675
 20
-261.0409137869457
 30
0.0
 10
555.4117703430675
 20
-260.1017801381253
 30
0.0
 10
555.4117703430675
 20
-259.162646489305
 30
0.0
 10
555.4117703430675
 20
-252.6738048621841
 30
0.0
 10
555.4117703430675
 20
-252.6738048621841
 30
0.0
  0
SPLINE
  5
193
330
18D
100
AcDbEntity
  8
\U+30EC\U+30A4\U+30E4\U+30FC 1
 62
   250
420
  2234132
370
    18
100
AcDbSpline
210
0.0
220
0.0
230
1.0
 70
     8
 71
     3
 72
    20
 73
    16
 74
     0
 42
0.0000000001
 43
0.0000000001
 40
0.0
 40
0.0
 40
0.0
 40
0.0
 40
1.0
 40
1.0
 40
1.0
 40
2.0
 40
2.0
 40
2.0
 40
3.0
 40
3.0
 40
3.0
 40
4.0
 40
4.0
 40
4.0
 40
5.0
 40
5.0
 40
5.0
 40
5.0
 10
756.17277512963
 20
-253.0152140499981
 30
0.0
 10
756.17277512963
 20
-253.0152140499981
 30
0.0
 10
756.17277512963
 20
-257.0280639184719
 30
0.0
 10
756.17277512963
 20
-258.7354543673177
 30
0.0
 10
756.17277512963
 20
-260.4431893259393
 30
0.0
 10
753.8903978649805
 20
-263.6023439699902
 30
0.0
 10
752.047270564471
 20
-263.6023439699902
 30
0.0
 10
750.2037987541856
 20
-263.6023439699902
 30
0.0
 10
710.1741743751014
 20
-263.6023439699902
 30
0.0
 10
707.6282471319678
 20
-263.6023439699902
 30
0.0
 10
705.0826643986098
 20
-263.6023439699902
 30
0.0
 10
702.5367371554762
 20
-261.0409137869457
 30
0.0
 10
702.5367371554762
 20
-260.1017801381253
 30
0.0
 10
702.5367371554762
 20
-259.162646489305
 30
0.0
 10
702.5367371554762
 20
-252.6738048621841
 30
0.0
 10
702.5367371554762
 20
-252.6738048621841
 30
0.0
  0
SPLINE
  5
194
330
18D
100
AcDbEntity
  8
\U+30EC\U+30A4\U+30E4\U+30FC 1
 62
   250
420
  2234132
370
    18
100
AcDbSpline
210
0.0
220
0.0
230
1.0
 70
     8
 71
     3
 72
    86
 73
    82
 74
     0
 42
0.0000000001
 43
0.0000000001
 40
0.0
 40
0.0
 40
0.0
 40
0.0
 40
1.0
 40
1.0
 40
1.0
 40
2.0
 40
2.0
 40
2.0
 40
3.0
 40
3.0
 40
3.0
 40
4.0
 40
4.0
 40
4.0
 40
5.0
 40
5.0
 40
5.0
 40
6.0
 40
6.0
 40
6.0
 40
7.0
 40
7.0
 40
7.0
 40
8.0
 40
8.0
 40
8.0
 40
9.0
 40
9.0
 40
9.0
 40
10.0
 40
10.0
 40
10.0
 40
11.0
 40
11.0
 40
11.0
 40
12.0
 40
12.0
 40
12.0
 40
13.0
 40
13.0
 40
13.0
 40
14.0
 40
14.0
 40
14.0
 40
15.0
 40
15.0
 40
15.0
 40
16.0
 40
16.0
 40
16.0
 40
17.0
 40
17.0
 40
17.0
 40
18.0
 40
18.0
 40
18.0
 40
19.0
 40
19.0
 40
19.0
 40
20.0
 40
20.0
 40
20.0
 40
21.0
 40
21.0
 40
21.0
 40
22.0
 40
22.0
 40
22.0
 40
23.0
 40
23.0
 40
23.0
 40
24.0
 40
24.0
 40
24.0
 40
25.0
 40
25.0
 40
25.0
 40
26.0
 40
26.0
 40
26.0
 40
27.0
 40
27.0
 40
27.0
 40
27.0
 10
722.2881716214222
 20
-209.1305252797547
 30
0.0
 10
710.232396527211
 20
-210.6101947667993
 30
0.0
 10
685.9458353726843
 20
-215.2783022288374
 30
0.0
 10
665.93119543803
 20
-220.1734416331252
 30
0.0
 10
645.9165555033758
 20
-225.0678920178613
 30
0.0
 10
620.9864500876619
 20
-232.1262083043732
 30
0.0
 10
617.7087840807371
 20
-233.2648131133795
 30
0.0
 10
614.4314625835882
 20
-234.4027289028343
 30
0.0
 10
611.9733853332825
 20
-238.7287381575068
 30
0.0
 10
611.9733853332825
 20
-241.5747334153589
 30
0.0
 10
611.9733853332825
 20
-244.4207286732111
 30
0.0
 10
611.9733853332825
 20
-248.2912960042811
 30
0.0
 10
611.9733853332825
 20
-249.8849982271141
 30
0.0
 10
611.9733853332825
 20
-251.4783559401714
 30
0.0
 10
611.0373522724443
 20
-252.3895842971523
 30
0.0
 10
610.1006301920545
 20
-252.3895842971523
 30
0.0
 10
609.1642526214405
 20
-252.3895842971523
 30
0.0
 10
608.8131971599042
 20
-252.3895842971523
 30
0.0
 10
606.4722532333693
 20
-252.3895842971523
 30
0.0
 10
604.1319983263859
 20
-252.3895842971523
 30
0.0
 10
561.176107911689
 20
-252.3895842971523
 30
0.0
 10
558.366975199847
 20
-252.3895842971523
 30
0.0
 10
555.5578424880051
 20
-252.3895842971523
 30
0.0
 10
552.2805209908561
 20
-252.7313379947421
 30
0.0
 10
551.8123322055491
 20
-251.8201096377612
 30
0.0
 10
551.3441434202422
 20
-250.9092257905561
 30
0.0
 10
551.460932234237
 20
-245.5593334822174
 30
0.0
 10
551.460932234237
 20
-244.0789749756213
 30
0.0
 10
551.460932234237
 20
-242.598960978801
 30
0.0
 10
552.0465988530905
 20
-240.7782268137182
 30
0.0
 10
553.9193539943185
 20
-239.4119010429106
 30
0.0
 10
555.7914201159949
 20
-238.0459197818788
 30
0.0
 10
605.1848202012189
 20
-213.228813572626
 30
0.0
 10
639.8304458041607
 20
-201.7311443152046
 30
0.0
 10
674.4757268973266
 20
-190.2334750577833
 30
0.0
 10
717.314139478477
 20
-180.2154752874065
 30
0.0
 10
741.6592672948891
 20
-177.2561363133174
 30
0.0
 10
766.004739621077
 20
-174.2957638099009
 30
0.0
 10
805.0976419197715
 20
-171.4504575716004
 30
0.0
 10
808.9606300357739
 20
-171.4504575716004
 30
0.0
 10
812.822584622449
 20
-171.4504575716004
 30
0.0
 10
851.6815647833778
 20
-170.8809829122093
 30
0.0
 10
863.0348844447406
 20
-170.8809829122093
 30
0.0
 10
874.3882041061033
 20
-170.8809829122093
 30
0.0
 10
933.378957525457
 20
-171.1090483837864
 30
0.0
 10
949.6480871776554
 20
-173.3855689822475
 30
0.0
 10
965.9172168298536
 20
-175.6620895807085
 30
0.0
 10
1007.819940859942
 20
-184.2004198640408
 30
0.0
 10
1040.241066840568
 20
-195.9254655734876
 30
0.0
 10
1072.662537330969
 20
-207.6508557927102
 30
0.0
 10
1121.47027079734
 20
-236.7936267468597
 30
0.0
 10
1123.460159262338
 20
-237.9322315558661
 30
0.0
 10
1125.450047727337
 20
-239.0701473453208
 30
0.0
 10
1128.55166923883
 20
-241.0056032657437
 30
0.0
 10
1128.55166923883
 20
-242.3715845267755
 30
0.0
 10
1128.55166923883
 20
-243.7375657878073
 30
0.0
 10
1128.55166923883
 20
-246.3558400838582
 30
0.0
 10
1128.55166923883
 20
-248.9172702669027
 30
0.0
 10
1128.55166923883
 20
-251.4787004499472
 30
0.0
 10
1127.673858330101
 20
-252.9587144467675
 30
0.0
 10
1124.396536832953
 20
-252.9587144467675
 30
0.0
 10
1121.119559845579
 20
-252.9587144467675
 30
0.0
 10
1061.426006483601
 20
-252.9587144467675
 30
0.0
 10
1061.075295531841
 20
-252.9587144467675
 30
0.0
 10
1060.138573451451
 20
-252.9587144467675
 30
0.0
 10
1059.787173480139
 20
-251.3643232043829
 30
0.0
 10
1059.787173480139
 20
-250.2267519247039
 30
0.0
 10
1059.787173480139
 20
-249.0881471156976
 30
0.0
 10
1058.382951633994
 20
-233.7199105272063
 30
0.0
 10
1058.382951633994
 20
-233.7199105272063
 30
0.0
 10
1058.382951633994
 20
-233.7199105272063
 30
0.0
 10
1023.971592678593
 20
-219.034492314343
 30
0.0
 10
1000.67963124679
 20
-213.6842554962285
 30
0.0
 10
977.3880143247628
 20
-208.334018678114
 30
0.0
 10
960.768173720804
 20
-206.3985627576911
 30
0.0
 10
943.4451886644454
 20
-204.5771395730568
 30
0.0
 10
926.1222036080866
 20
-202.7557163884224
 30
0.0
 10
910.3205737216437
 20
-201.6174560891919
 30
0.0
 10
909.033829709045
 20
-201.7311443152046
 30
0.0
 10
907.7460521671189
 20
-201.8451770509932
 30
0.0
 10
903.7662752371216
 20
-204.1213531396785
 30
0.0
 10
902.7134533622885
 20
-205.9431208340886
 30
0.0
  0
SPLINE
  5
195
330
18D
100
AcDbEntity
  8
\U+30EC\U+30A4\U+30E4\U+30FC 1
 62
   250
420
  2234132
370
    18
100
AcDbSpline
210
0.0
220
0.0
230
1.0
 70
     8
 71
     3
 72
    23
 73
    19
 74
     0
 42
0.0000000001
 43
0.0000000001
 40
0.0
 40
0.0
 40
0.0
 40
0.0
 40
1.0
 40
1.0
 40
1.0
 40
2.0
 40
2.0
 40
2.0
 40
3.0
 40
3.0
 40
3.0
 40
4.0
 40
4.0
 40
4.0
 40
5.0
 40
5.0
 40
5.0
 40
6.0
 40
6.0
 40
6.0
 40
6.0
 10
587.8618351448603
 20
-252.503272523165
 30
0.0
 10
587.2772020553341
 20
-252.503272523165
 30
0.0
 10
583.2974251253368
 20
-251.4783559401714
 30
0.0
 10
583.2974251253368
 20
-249.3155235677231
 30
0.0
 10
583.2974251253368
 20
-247.1526911952747
 30
0.0
 10
583.1806363113419
 20
-240.0947194185386
 30
0.0
 10
583.6488250966489
 20
-237.9322315558661
 30
0.0
 10
584.1166693721801
 20
-235.7690546736419
 30
0.0
 10
585.1705247763406
 20
-233.7199105272063
 30
0.0
 10
588.4478462734895
 20
-232.3539292661745
 30
0.0
 10
591.7248232608626
 20
-230.9876034953669
 30
0.0
 10
615.8356844297333
 20
-218.5793949005163
 30
0.0
 10
645.2141000705275
 20
-209.4722789773445
 30
0.0
 10
674.5925157113215
 20
-200.364818544397
 30
0.0
 10
708.3017637436493
 20
-192.3963074302316
 30
0.0
 10
723.9859157965457
 20
-189.5506566821553
 30
0.0
 10
739.6693788298904
 20
-186.7043169145273
 30
0.0
 10
761.4399850917778
 20
-184.6555172778675
 30
0.0
 10
761.4399850917778
 20
-184.6555172778675
 30
0.0
  0
SPLINE
  5
196
330
18D
100
AcDbEntity
  8
\U+30EC\U+30A4\U+30E4\U+30FC 1
 62
   250
420
  2234132
370
    18
100
AcDbSpline
210
0.0
220
0.0
230
1.0
 70
     8
 71
     3
 72
    53
 73
    49
 74
     0
 42
0.0000000001
 43
0.0000000001
 40
0.0
 40
0.0
 40
0.0
 40
0.0
 40
1.0
 40
1.0
 40
1.0
 40
2.0
 40
2.0
 40
2.0
 40
3.0
 40
3.0
 40
3.0
 40
4.0
 40
4.0
 40
4.0
 40
5.0
 40
5.0
 40
5.0
 40
6.0
 40
6.0
 40
6.0
 40
7.0
 40
7.0
 40
7.0
 40
8.0
 40
8.0
 40
8.0
 40
9.0
 40
9.0
 40
9.0
 40
10.0
 40
10.0
 40
10.0
 40
11.0
 40
11.0
 40
11.0
 40
12.0
 40
12.0
 40
12.0
 40
13.0
 40
13.0
 40
13.0
 40
14.0
 40
14.0
 40
14.0
 40
15.0
 40
15.0
 40
15.0
 40
16.0
 40
16.0
 40
16.0
 40
16.0
 10
793.2764779828775
 20
-174.0683873578755
 30
0.0
 10
778.64549231459
 20
-178.1663311409709
 30
0.0
 10
760.3868187071688
 20
-183.4028797330726
 30
0.0
 10
741.5424784808943
 20
-195.5837118758978
 30
0.0
 10
722.6981382546196
 20
-207.7652330382745
 30
0.0
 10
720.2404055140897
 20
-211.0659812001776
 30
0.0
 10
713.2175737344847
 20
-216.8716599418946
 30
0.0
 10
706.1943974451041
 20
-222.6776831933875
 30
0.0
 10
694.8414222935171
 20
-234.0613197150203
 30
0.0
 10
692.500822876758
 20
-236.5659057850584
 30
0.0
 10
690.1595344404473
 20
-239.0701473453208
 30
0.0
 10
688.5207014369848
 20
-240.5501613421411
 30
0.0
 10
687.8182460041364
 20
-243.168435638192
 30
0.0
 10
687.1164795908396
 20
-245.7870544440187
 30
0.0
 10
688.1696459754486
 20
-251.1369467523574
 30
0.0
 10
688.2867792992192
 20
-251.5923886759599
 30
0.0
 10
688.40391262299
 20
-252.0478305995625
 30
0.0
 10
688.5210459467606
 20
-252.3892397873765
 30
0.0
 10
690.7448565495249
 20
-252.3892397873765
 30
0.0
 10
692.9686671522892
 20
-252.3892397873765
 30
0.0
 10
759.4507856463307
 20
-252.9587144467675
 30
0.0
 10
759.4507856463307
 20
-252.9587144467675
 30
0.0
 10
760.8546629827
 20
-252.9587144467675
 30
0.0
 10
762.1424405246261
 20
-251.5927331857357
 30
0.0
 10
762.1424405246261
 20
-250.4541283767294
 30
0.0
 10
762.1424405246261
 20
-249.3155235677231
 30
0.0
 10
762.1424405246261
 20
-231.2153244571682
 30
0.0
 10
762.1424405246261
 20
-231.2153244571682
 30
0.0
 10
762.1424405246261
 20
-231.2153244571682
 30
0.0
 10
779.6993477187505
 20
-210.7245720123636
 30
0.0
 10
798.0754991597181
 20
-199.4546237167436
 30
0.0
 10
816.4509615811342
 20
-188.1846754211235
 30
0.0
 10
834.4767465801172
 20
-180.7849499467976
 30
0.0
 10
850.1598651036861
 20
-180.7849499467976
 30
0.0
 10
865.8440171565825
 20
-180.7849499467976
 30
0.0
 10
899.4364763749153
 20
-178.9635267621632
 30
0.0
 10
921.4406602647924
 20
-182.3783076598548
 30
0.0
 10
943.4444996448938
 20
-185.7937775770981
 30
0.0
 10
970.9501601444599
 20
-190.3475077935718
 30
0.0
 10
1004.541930343241
 20
-203.6666002356275
 30
0.0
 10
1038.134045051798
 20
-216.9856926776832
 30
0.0
 10
1062.12846191645
 20
-232.5816502279758
 30
0.0
 10
1062.12846191645
 20
-232.5816502279758
 30
0.0
 10
1062.12846191645
 20
-232.5816502279758
 30
0.0
 10
1062.12846191645
 20
-245.1038915586149
 30
0.0
 10
1062.011328592679
 20
-247.1526911952747
 30
0.0
 10
1061.894539778684
 20
-249.2018353417103
 30
0.0
 10
1061.923823109627
 20
-252.1615188255752
 30
0.0
 10
1062.860200680241
 20
-252.844681710979
 30
0.0
  0
SPLINE
  5
197
330
18D
100
AcDbEntity
  8
\U+30EC\U+30A4\U+30E4\U+30FC 1
 62
   250
420
  2234132
370
    18
100
AcDbSpline
210
0.0
220
0.0
230
1.0
 70
     8
 71
     3
 72
    20
 73
    16
 74
     0
 42
0.0000000001
 43
0.0000000001
 40
0.0
 40
0.0
 40
0.0
 40
0.0
 40
1.0
 40
1.0
 40
1.0
 40
2.0
 40
2.0
 40
2.0
 40
3.0
 40
3.0
 40
3.0
 40
4.0
 40
4.0
 40
4.0
 40
5.0
 40
5.0
 40
5.0
 40
5.0
 10
688.5792680988702
 20
-241.745265754378
 30
0.0
 10
689.2817235317186
 20
-240.7206936811602
 30
0.0
 10
692.6172671809771
 20
-240.3789399835704
 30
0.0
 10
695.9531553400113
 20
-240.3789399835704
 30
0.0
 10
699.2893880088214
 20
-240.3789399835704
 30
0.0
 10
737.3873460750166
 20
-241.5747334153589
 30
0.0
 10
740.0204342914267
 20
-241.5747334153589
 30
0.0
 10
742.6542115273885
 20
-241.5747334153589
 30
0.0
 10
744.4098333448458
 20
-240.8912260201793
 30
0.0
 10
746.3408106381833
 20
-239.0133032323144
 30
0.0
 10
748.2724769510723
 20
-237.1350359346737
 30
0.0
 10
762.3177960005064
 20
-217.1562250167023
 30
0.0
 10
785.6683240941949
 20
-200.9339486940123
 30
0.0
 10
809.0188521878835
 20
-184.7120168810981
 30
0.0
 10
822.7127712660053
 20
-177.5403568783493
 30
0.0
 10
839.3915230416253
 20
-174.4666406586958
 30
0.0
  0
SPLINE
  5
198
330
18D
100
AcDbEntity
  8
\U+30EC\U+30A4\U+30E4\U+30FC 1
 62
   250
420
  2234132
370
    18
100
AcDbSpline
210
0.0
220
0.0
230
1.0
 70
     8
 71
     3
 72
    14
 73
    10
 74
     0
 42
0.0000000001
 43
0.0000000001
 40
0.0
 40
0.0
 40
0.0
 40
0.0
 40
1.0
 40
1.0
 40
1.0
 40
2.0
 40
2.0
 40
2.0
 40
3.0
 40
3.0
 40
3.0
 40
3.0
 10
832.0183248200357
 20
-183.6020063834828
 30
0.0
 10
832.0183248200357
 20
-183.6020063834828
 30
0.0
 10
831.6669248487236
 20
-200.7634163549932
 30
0.0
 10
831.6669248487236
 20
-200.7634163549932
 30
0.0
 10
831.6669248487236
 20
-200.7634163549932
 30
0.0
 10
815.77847849878
 20
-201.6171115794161
 30
0.0
 10
805.6829640288491
 20
-204.263980186858
 30
0.0
 10
795.5881385784697
 20
-206.9105042845242
 30
0.0
 10
783.9127022767376
 20
-210.8379157286006
 30
0.0
 10
779.2600977546103
 20
-213.8261935238565
 30
0.0
  0
SPLINE
  5
199
330
18D
100
AcDbEntity
  8
\U+30EC\U+30A4\U+30E4\U+30FC 1
 62
   250
420
  2234132
370
    18
100
AcDbSpline
210
0.0
220
0.0
230
1.0
 70
     8
 71
     3
 72
    20
 73
    16
 74
     0
 42
0.0000000001
 43
0.0000000001
 40
0.0
 40
0.0
 40
0.0
 40
0.0
 40
1.0
 40
1.0
 40
1.0
 40
2.0
 40
2.0
 40
2.0
 40
3.0
 40
3.0
 40
3.0
 40
4.0
 40
4.0
 40
4.0
 40
5.0
 40
5.0
 40
5.0
 40
5.0
 10
908.0388854765457
 20
-202.2144915306467
 30
0.0
 10
908.0388854765457
 20
-202.2144915306467
 30
0.0
 10
908.0388854765457
 20
-219.7176551997468
 30
0.0
 10
908.0388854765457
 20
-223.3890958804066
 30
0.0
 10
908.0388854765457
 20
-227.0601920512906
 30
0.0
 10
906.0197136806044
 20
-231.5853279563732
 30
0.0
 10
901.7185091297891
 20
-231.5853279563732
 30
0.0
 10
897.4166155594224
 20
-231.5853279563732
 30
0.0
 10
824.3808876004103
 20
-231.5853279563732
 30
0.0
 10
819.8161330711112
 20
-231.5853279563732
 30
0.0
 10
815.251378541812
 20
-231.5853279563732
 30
0.0
 10
813.1447012628183
 20
-229.5358393001618
 30
0.0
 10
813.1447012628183
 20
-226.2915907414893
 30
0.0
 10
813.1447012628183
 20
-223.0473421828168
 30
0.0
 10
813.1447012628183
 20
-202.9830928404479
 30
0.0
 10
813.1447012628183
 20
-202.9830928404479
 30
0.0
  0
SPLINE
  5
19A
330
18D
100
AcDbEntity
  8
\U+30EC\U+30A4\U+30E4\U+30FC 1
 62
   250
420
  2234132
370
    18
100
AcDbSpline
210
0.0
220
0.0
230
1.0
 70
     8
 71
     3
 72
    17
 73
    13
 74
     0
 42
0.0000000001
 43
0.0000000001
 40
0.0
 40
0.0
 40
0.0
 40
0.0
 40
1.0
 40
1.0
 40
1.0
 40
2.0
 40
2.0
 40
2.0
 40
3.0
 40
3.0
 40
3.0
 40
4.0
 40
4.0
 40
4.0
 40
4.0
 10
1128.375624743398
 20
-241.745265754378
 30
0.0
 10
1127.673858330101
 20
-241.2329797177692
 30
0.0
 10
1125.478986548504
 20
-240.7206936811602
 30
0.0
 10
1123.196609283854
 20
-240.7206936811602
 30
0.0
 10
1120.914232019205
 20
-240.7206936811602
 30
0.0
 10
1097.914759387053
 20
-241.5747334153589
 30
0.0
 10
1097.125142980928
 20
-241.5747334153589
 30
0.0
 10
1096.334837555251
 20
-241.5747334153589
 30
0.0
 10
1094.75491572345
 20
-242.086674942192
 30
0.0
 10
1094.75491572345
 20
-244.9044203984289
 30
0.0
 10
1094.75491572345
 20
-247.72182134489
 30
0.0
 10
1094.75491572345
 20
-253.1006524743956
 30
0.0
 10
1094.75491572345
 20
-253.1006524743956
 30
0.0
  0
SPLINE
  5
19B
330
18D
100
AcDbEntity
  8
\U+30EC\U+30A4\U+30E4\U+30FC 1
 62
   250
420
  2234132
370
    18
100
AcDbSpline
210
0.0
220
0.0
230
1.0
 70
     8
 71
     3
 72
    17
 73
    13
 74
     0
 42
0.0000000001
 43
0.0000000001
 40
0.0
 40
0.0
 40
0.0
 40
0.0
 40
1.0
 40
1.0
 40
1.0
 40
2.0
 40
2.0
 40
2.0
 40
3.0
 40
3.0
 40
3.0
 40
4.0
 40
4.0
 40
4.0
 40
4.0
 10
1095.544532129575
 20
-242.086674942192
 30
0.0
 10
1095.544532129575
 20
-242.086674942192
 30
0.0
 10
1076.056992151889
 20
-228.852676414758
 30
0.0
 10
1056.568763154651
 20
-218.9490538899456
 30
0.0
 10
1037.081223176965
 20
-209.0450868553573
 30
0.0
 10
1026.283597783962
 20
-202.8125605014288
 30
0.0
 10
999.2457815599266
 20
-193.5063179278469
 30
0.0
 10
972.2086543554433
 20
-184.200075354265
 30
0.0
 10
950.1751871346235
 20
-178.5652734613429
 30
0.0
 10
934.9885071979768
 20
-176.08893719292
 30
0.0
 10
919.80182726133
 20
-173.6129454342729
 30
0.0
 10
908.7409963996182
 20
-172.8443441244717
 30
0.0
 10
899.2600873697077
 20
-172.6738117854526
 30
0.0
  0
POLYLINE
  5
19C
330
18D
100
AcDbEntity
  8
\U+30EC\U+30A4\U+30E4\U+30FC 1
 62
   250
420
  2234132
370
    18
100
AcDb2dPolyline
 66
     1
 10
0.0
 20
0.0
 30
0.0
  0
VERTEX
  5
19D
330
19C
100
AcDbEntity
  8
\U+30EC\U+30A4\U+30E4\U+30FC 1
 62
   250
420
  2234132
370
    18
100
AcDbVertex
100
AcDb2dVertex
 10
981.0749579453335
 20
-195.4700236498851
 30
0.0
  0
VERTEX
  5
19E
330
19C
100
AcDbEntity
  8
\U+30EC\U+30A4\U+30E4\U+30FC 1
 62
   250
420
  2234132
370
    18
100
AcDbVertex
100
AcDb2dVertex
 10
981.0749579453335
 20
-209.6431558261394
 30
0.0
  0
SEQEND
  5
19F
330
19C
100
AcDbEntity
  8
\U+30EC\U+30A4\U+30E4\U+30FC 1
370
    18
  0
POLYLINE
  5
1A0
330
18D
100
AcDbEntity
  8
\U+30EC\U+30A4\U+30E4\U+30FC 1
 62
   250
420
  2234132
370
    18
100
AcDb2dPolyline
 66
     1
 10
0.0
 20
0.0
 30
0.0
  0
VERTEX
  5
1A1
330
1A0
100
AcDbEntity
  8
\U+30EC\U+30A4\U+30E4\U+30FC 1
 62
   250
420
  2234132
370
    18
100
AcDbVertex
100
AcDb2dVertex
 10
974.3446149653795
 20
-193.3640353904431
 30
0.0
  0
VERTEX
  5
1A2
330
1A0
100
AcDbEntity
  8
\U+30EC\U+30A4\U+30E4\U+30FC 1
 62
   250
420
  2234132
370
    18
100
AcDbVertex
100
AcDb2dVertex
 10
974.3446149653795
 20
-208.3336741683382
 30
0.0
  0
SEQEND
  5
1A3
330
1A0
100
AcDbEntity
  8
\U+30EC\U+30A4\U+30E4\U+30FC 1
370
    18
  0
POLYLINE
  5
1A4
330
18D
100
AcDbEntity
  8
\U+30EC\U+30A4\U+30E4\U+30FC 1
 62
   250
420
  2234132
370
    18
100
AcDb2dPolyline
 66
     1
 10
0.0
 20
0.0
 30
0.0
  0
VERTEX
  5
1A5
330
1A4
100
AcDbEntity
  8
\U+30EC\U+30A4\U+30E4\U+30FC 1
 62
   250
420
  2234132
370
    18
100
AcDbVertex
100
AcDb2dVertex
 10
914.8274506086092
 20
-181.4109242094192
 30
0.0
  0
VERTEX
  5
1A6
330
1A4
100
AcDbEntity
  8
\U+30EC\U+30A4\U+30E4\U+30FC 1
 62
   250
420
  2234132
370
    18
100
AcDbVertex
100
AcDb2dVertex
 10
914.8274506086092
 20
-201.5606119761855
 30
0.0
  0
SEQEND
  5
1A7
330
1A4
100
AcDbEntity
  8
\U+30EC\U+30A4\U+30E4\U+30FC 1
370
    18
  0
POLYLINE
  5
1A8
330
18D
100
AcDbEntity
  8
\U+30EC\U+30A4\U+30E4\U+30FC 1
 62
   250
420
  2234132
370
    18
100
AcDb2dPolyline
 66
     1
 10
0.0
 20
0.0
 30
0.0
  0
VERTEX
  5
1A9
330
1A8
100
AcDbEntity
  8
\U+30EC\U+30A4\U+30E4\U+30FC 1
 62
   250
420
  2234132
370
    18
100
AcDbVertex
100
AcDb2dVertex
 10
908.4485075999673
 20
-181.0691705118294
 30
0.0
  0
VERTEX
  5
1AA
330
1A8
100
AcDbEntity
  8
\U+30EC\U+30A4\U+30E4\U+30FC 1
 62
   250
420
  2234132
370
    18
100
AcDbVertex
100
AcDb2dVertex
 10
908.4485075999673
 20
-201.9592097867817
 30
0.0
  0
SEQEND
  5
1AB
330
1A8
100
AcDbEntity
  8
\U+30EC\U+30A4\U+30E4\U+30FC 1
370
    18
  0
POLYLINE
  5
1AC
330
18D
100
AcDbEntity
  8
\U+30EC\U+30A4\U+30E4\U+30FC 1
 62
   250
420
  2234132
370
    18
100
AcDb2dPolyline
 66
     1
 10
0.0
 20
0.0
 30
0.0
  0
VERTEX
  5
1AD
330
1AC
100
AcDbEntity
  8
\U+30EC\U+30A4\U+30E4\U+30FC 1
 62
   250
420
  2234132
370
    18
100
AcDbVertex
100
AcDb2dVertex
 10
850.9791093505294
 20
-231.840954210014
 30
0.0
  0
VERTEX
  5
1AE
330
1AC
100
AcDbEntity
  8
\U+30EC\U+30A4\U+30E4\U+30FC 1
 62
   250
420
  2234132
370
    18
100
AcDbVertex
100
AcDb2dVertex
 10
850.9791093505294
 20
-233.4635952540139
 30
0.0
  0
VERTEX
  5
1AF
330
1AC
100
AcDbEntity
  8
\U+30EC\U+30A4\U+30E4\U+30FC 1
 62
   250
420
  2234132
370
    18
100
AcDbVertex
100
AcDb2dVertex
 10
833.2471911903006
 20
-233.4635952540139
 30
0.0
  0
VERTEX
  5
1B0
330
1AC
100
AcDbEntity
  8
\U+30EC\U+30A4\U+30E4\U+30FC 1
 62
   250
420
  2234132
370
    18
100
AcDbVertex
100
AcDb2dVertex
 10
833.2471911903006
 20
-231.7558602953923
 30
0.0
  0
SEQEND
  5
1B1
330
1AC
100
AcDbEntity
  8
\U+30EC\U+30A4\U+30E4\U+30FC 1
370
    18
  0
POLYLINE
  5
1B2
330
18D
100
AcDbEntity
  8
\U+30EC\U+30A4\U+30E4\U+30FC 1
 62
   250
420
  2234132
370
    18
100
AcDb2dPolyline
 66
     1
 10
0.0
 20
0.0
 30
0.0
  0
VERTEX
  5
1B3
330
1B2
100
AcDbEntity
  8
\U+30EC\U+30A4\U+30E4\U+30FC 1
 62
   250
420
  2234132
370
    18
100
AcDbVertex
100
AcDb2dVertex
 10
850.0137929587486
 20
-233.5490336784114
 30
0.0
  0
VERTEX
  5
1B4
330
1B2
100
AcDbEntity
  8
\U+30EC\U+30A4\U+30E4\U+30FC 1
 62
   250
420
  2234132
370
    18
100
AcDbVertex
100
AcDb2dVertex
 10
850.0137929587486
 20
-235.2564241272572
 30
0.0
  0
VERTEX
  5
1B5
330
1B2
100
AcDbEntity
  8
\U+30EC\U+30A4\U+30E4\U+30FC 1
 62
   250
420
  2234132
370
    18
100
AcDbVertex
100
AcDb2dVertex
 10
834.6517575462216
 20
-235.2564241272572
 30
0.0
  0
VERTEX
  5
1B6
330
1B2
100
AcDbEntity
  8
\U+30EC\U+30A4\U+30E4\U+30FC 1
 62
   250
420
  2234132
370
    18
100
AcDbVertex
100
AcDb2dVertex
 10
834.6517575462216
 20
-233.8050044418279
 30
0.0
  0
SEQEND
  5
1B7
330
1B2
100
AcDbEntity
  8
\U+30EC\U+30A4\U+30E4\U+30FC 1
370
    18
  0
SPLINE
  5
1B8
330
18D
100
AcDbEntity
  8
\U+30EC\U+30A4\U+30E4\U+30FC 1
 62
   250
420
  2234132
370
    18
100
AcDbSpline
210
0.0
220
0.0
230
1.0
 70
     8
 71
     3
 72
    20
 73
    16
 74
     0
 42
0.0000000001
 43
0.0000000001
 40
0.0
 40
0.0
 40
0.0
 40
0.0
 40
1.0
 40
1.0
 40
1.0
 40
2.0
 40
2.0
 40
2.0
 40
3.0
 40
3.0
 40
3.0
 40
4.0
 40
4.0
 40
4.0
 40
5.0
 40
5.0
 40
5.0
 40
5.0
 10
849.2238320428479
 20
-235.6836162492445
 30
0.0
 10
849.2238320428479
 20
-235.6836162492445
 30
0.0
 10
849.2238320428479
 20
-237.9883866493208
 30
0.0
 10
849.2238320428479
 20
-239.0133032323144
 30
0.0
 10
849.2238320428479
 20
-240.0378753055322
 30
0.0
 10
848.6095711126034
 20
-240.8061321055577
 30
0.0
 10
847.4678657156148
 20
-240.8061321055577
 30
0.0
 10
846.3268493381779
 20
-240.8061321055577
 30
0.0
 10
837.9869566857043
 20
-240.8061321055577
 30
0.0
 10
836.7584348252152
 20
-240.8061321055577
 30
0.0
 10
835.5292239451744
 20
-240.8061321055577
 30
0.0
 10
835.178512993414
 20
-240.1229692201539
 30
0.0
 10
835.178512993414
 20
-239.269273995731
 30
0.0
 10
835.178512993414
 20
-238.4155787713081
 30
0.0
 10
835.178512993414
 20
-235.4273009760521
 30
0.0
 10
835.178512993414
 20
-235.4273009760521
 30
0.0
  0
SPLINE
  5
1B9
330
18D
100
AcDbEntity
  8
\U+30EC\U+30A4\U+30E4\U+30FC 1
 62
   250
420
  2234132
370
    18
100
AcDbSpline
210
0.0
220
0.0
230
1.0
 70
    11
 71
     3
 72
    17
 73
    13
 74
     0
 42
0.0000000001
 43
0.0000000001
 40
0.0
 40
0.0
 40
0.0
 40
0.0
 40
1.0
 40
1.0
 40
1.0
 40
2.0
 40
2.0
 40
2.0
 40
3.0
 40
3.0
 40
3.0
 40
4.0
 40
4.0
 40
4.0
 40
4.0
 10
840.4453784457858
 20
-235.3418625516547
 30
0.0
 10
841.5863948232227
 20
-235.3418625516547
 30
0.0
 10
844.7465829966009
 20
-236.7074993029107
 30
0.0
 10
844.7465829966009
 20
-237.7324158859043
 30
0.0
 10
844.7465829966009
 20
-238.7569879591221
 30
0.0
 10
842.8156057032634
 20
-240.6352552567628
 30
0.0
 10
840.708583914494
 20
-240.6352552567628
 30
0.0
 10
838.6019066355004
 20
-240.6352552567628
 30
0.0
 10
837.1091457769757
 20
-239.269273995731
 30
0.0
 10
837.1091457769757
 20
-237.9883866493208
 30
0.0
 10
837.1091457769757
 20
-236.7074993029107
 30
0.0
 10
838.5140566426725
 20
-235.3418625516547
 30
0.0
 10
840.4453784457858
 20
-235.3418625516547
 30
0.0
  0
SPLINE
  5
1BA
330
18D
100
AcDbEntity
  8
\U+30EC\U+30A4\U+30E4\U+30FC 1
 62
   250
420
  2234132
370
    18
100
AcDbSpline
210
0.0
220
0.0
230
1.0
 70
     8
 71
     3
 72
    11
 73
     7
 74
     0
 42
0.0000000001
 43
0.0000000001
 40
0.0
 40
0.0
 40
0.0
 40
0.0
 40
1.0
 40
1.0
 40
1.0
 40
2.0
 40
2.0
 40
2.0
 40
2.0
 10
847.9067711699792
 20
-240.2084076445513
 30
0.0
 10
846.502549323834
 20
-240.2084076445513
 30
0.0
 10
844.7465829966009
 20
-238.6718940445004
 30
0.0
 10
844.7465829966009
 20
-237.7324158859043
 30
0.0
 10
844.7465829966009
 20
-236.7932822370839
 30
0.0
 10
847.0289602612505
 20
-235.4273009760521
 30
0.0
 10
848.2581711412913
 20
-235.4273009760521
 30
0.0
  0
SPLINE
  5
1BB
330
18D
100
AcDbEntity
  8
\U+30EC\U+30A4\U+30E4\U+30FC 1
 62
   250
420
  2234132
370
    18
100
AcDbSpline
210
0.0
220
0.0
230
1.0
 70
     8
 71
     3
 72
    11
 73
     7
 74
     0
 42
0.0000000001
 43
0.0000000001
 40
0.0
 40
0.0
 40
0.0
 40
0.0
 40
1.0
 40
1.0
 40
1.0
 40
2.0
 40
2.0
 40
2.0
 40
2.0
 10
835.5292239451744
 20
-235.3418625516547
 30
0.0
 10
835.7924294138827
 20
-235.4273009760521
 30
0.0
 10
837.1091457769757
 20
-236.5373114736674
 30
0.0
 10
837.1091457769757
 20
-237.9883866493208
 30
0.0
 10
837.1091457769757
 20
-239.4401508445259
 30
0.0
 10
836.4952293565069
 20
-240.1229692201539
 30
0.0
 10
835.7049239308304
 20
-240.4647229177437
 30
0.0
  0
POLYLINE
  5
1BC
330
18D
100
AcDbEntity
  8
\U+30EC\U+30A4\U+30E4\U+30FC 1
 62
   250
420
  2234132
370
    18
100
AcDb2dPolyline
 66
     1
 10
0.0
 20
0.0
 30
0.0
  0
VERTEX
  5
1BD
330
1BC
100
AcDbEntity
  8
\U+30EC\U+30A4\U+30E4\U+30FC 1
 62
   250
420
  2234132
370
    18
100
AcDbVertex
100
AcDb2dVertex
 10
885.3908128157055
 20
-231.6704218709949
 30
0.0
  0
VERTEX
  5
1BE
330
1BC
100
AcDbEntity
  8
\U+30EC\U+30A4\U+30E4\U+30FC 1
 62
   250
420
  2234132
370
    18
100
AcDbVertex
100
AcDb2dVertex
 10
885.3908128157055
 20
-233.5490336784114
 30
0.0
  0
VERTEX
  5
1BF
330
1BC
100
AcDbEntity
  8
\U+30EC\U+30A4\U+30E4\U+30FC 1
 62
   250
420
  2234132
370
    18
100
AcDbVertex
100
AcDb2dVertex
 10
865.9025838184679
 20
-233.5490336784114
 30
0.0
  0
VERTEX
  5
1C0
330
1BC
100
AcDbEntity
  8
\U+30EC\U+30A4\U+30E4\U+30FC 1
 62
   250
420
  2234132
370
    18
100
AcDbVertex
100
AcDb2dVertex
 10
865.9025838184679
 20
-231.7558602953923
 30
0.0
  0
SEQEND
  5
1C1
330
1BC
100
AcDbEntity
  8
\U+30EC\U+30A4\U+30E4\U+30FC 1
370
    18
  0
POLYLINE
  5
1C2
330
18D
100
AcDbEntity
  8
\U+30EC\U+30A4\U+30E4\U+30FC 1
 62
   250
420
  2234132
370
    18
100
AcDb2dPolyline
 66
     1
 10
0.0
 20
0.0
 30
0.0
  0
VERTEX
  5
1C3
330
1C2
100
AcDbEntity
  8
\U+30EC\U+30A4\U+30E4\U+30FC 1
 62
   250
420
  2234132
370
    18
100
AcDbVertex
100
AcDb2dVertex
 10
884.1616019356647
 20
-233.8904428662254
 30
0.0
  0
VERTEX
  5
1C4
330
1C2
100
AcDbEntity
  8
\U+30EC\U+30A4\U+30E4\U+30FC 1
 62
   250
420
  2234132
370
    18
100
AcDbVertex
100
AcDb2dVertex
 10
884.1616019356647
 20
-235.5978333150712
 30
0.0
  0
VERTEX
  5
1C5
330
1C2
100
AcDbEntity
  8
\U+30EC\U+30A4\U+30E4\U+30FC 1
 62
   250
420
  2234132
370
    18
100
AcDbVertex
100
AcDb2dVertex
 10
867.2193001815608
 20
-235.5978333150712
 30
0.0
  0
VERTEX
  5
1C6
330
1C2
100
AcDbEntity
  8
\U+30EC\U+30A4\U+30E4\U+30FC 1
 62
   250
420
  2234132
370
    18
100
AcDbVertex
100
AcDb2dVertex
 10
867.2193001815608
 20
-233.6344721028088
 30
0.0
  0
SEQEND
  5
1C7
330
1C2
100
AcDbEntity
  8
\U+30EC\U+30A4\U+30E4\U+30FC 1
370
    18
  0
SPLINE
  5
1C8
330
18D
100
AcDbEntity
  8
\U+30EC\U+30A4\U+30E4\U+30FC 1
 62
   250
420
  2234132
370
    18
100
AcDbSpline
210
0.0
220
0.0
230
1.0
 70
     8
 71
     3
 72
    20
 73
    16
 74
     0
 42
0.0000000001
 43
0.0000000001
 40
0.0
 40
0.0
 40
0.0
 40
0.0
 40
1.0
 40
1.0
 40
1.0
 40
2.0
 40
2.0
 40
2.0
 40
3.0
 40
3.0
 40
3.0
 40
4.0
 40
4.0
 40
4.0
 40
5.0
 40
5.0
 40
5.0
 40
5.0
 10
883.6348464884725
 20
-235.8538040784878
 30
0.0
 10
884.2494519284928
 20
-235.8538040784878
 30
0.0
 10
884.6008518998049
 20
-235.6836162492445
 30
0.0
 10
884.6008518998049
 20
-236.7932822370839
 30
0.0
 10
884.6008518998049
 20
-237.9032927346992
 30
0.0
 10
885.0394128443934
 20
-240.8061321055577
 30
0.0
 10
883.6348464884725
 20
-240.8061321055577
 30
0.0
 10
882.2302801325515
 20
-240.8061321055577
 30
0.0
 10
870.9937492851836
 20
-240.9766644445768
 30
0.0
 10
869.3263219703301
 20
-240.9766644445768
 30
0.0
 10
867.6582056359251
 20
-240.9766644445768
 30
0.0
 10
867.0439447056806
 20
-240.3789399835704
 30
0.0
 10
867.0439447056806
 20
-239.3550569299042
 30
0.0
 10
867.0439447056806
 20
-238.3301403469106
 30
0.0
 10
866.5171892584882
 20
-235.7690546736419
 30
0.0
 10
867.5707001528729
 20
-235.7690546736419
 30
0.0
  0
SPLINE
  5
1C9
330
18D
100
AcDbEntity
  8
\U+30EC\U+30A4\U+30E4\U+30FC 1
 62
   250
420
  2234132
370
    18
100
AcDbSpline
210
0.0
220
0.0
230
1.0
 70
     8
 71
     3
 72
    29
 73
    25
 74
     0
 42
0.0000000001
 43
0.0000000001
 40
0.0
 40
0.0
 40
0.0
 40
0.0
 40
1.0
 40
1.0
 40
1.0
 40
2.0
 40
2.0
 40
2.0
 40
3.0
 40
3.0
 40
3.0
 40
4.0
 40
4.0
 40
4.0
 40
5.0
 40
5.0
 40
5.0
 40
6.0
 40
6.0
 40
6.0
 40
7.0
 40
7.0
 40
7.0
 40
8.0
 40
8.0
 40
8.0
 40
8.0
 10
919.80182726133
 20
-171.6778340236258
 30
0.0
 10
919.80182726133
 20
-171.6778340236258
 30
0.0
 10
919.3339829857989
 20
-167.6932339567674
 30
0.0
 10
916.1734503026448
 20
-166.3272526957356
 30
0.0
 10
913.0132621292665
 20
-164.9612714347037
 30
0.0
 10
908.9166963852743
 20
-161.2043923296465
 30
0.0
 10
907.8635300006654
 20
-159.041904466974
 30
0.0
 10
906.8096745965049
 20
-156.8790720945256
 30
0.0
 10
906.2243524874273
 20
-151.5288352764111
 30
0.0
 10
905.1708415930426
 20
-151.5288352764111
 30
0.0
 10
904.1176752084336
 20
-151.5288352764111
 30
0.0
 10
816.4509615811342
 20
-151.5288352764111
 30
0.0
 10
815.7491951678373
 20
-151.5288352764111
 30
0.0
 10
815.0463952252132
 20
-151.5288352764111
 30
0.0
 10
813.6418288692922
 20
-153.3495694414939
 30
0.0
 10
813.290773407756
 20
-155.0573044001155
 30
0.0
 10
812.9400624559954
 20
-156.7650393587371
 30
0.0
 10
810.3645073721433
 20
-161.0907041036338
 30
0.0
 10
808.8428076924516
 20
-162.7984390622554
 30
0.0
 10
807.3217970323115
 20
-164.506174020877
 30
0.0
 10
803.8102088876211
 20
-166.213219959947
 30
0.0
 10
802.5227758554709
 20
-167.0104155811393
 30
0.0
 10
801.2360318428722
 20
-167.8076112023317
 30
0.0
 10
800.4160985764773
 20
-171.6778340236258
 30
0.0
 10
800.4160985764773
 20
-171.6778340236258
 30
0.0
  0
POLYLINE
  5
1CA
330
18D
100
AcDbEntity
  8
\U+30EC\U+30A4\U+30E4\U+30FC 1
 62
   250
420
  2234132
370
    18
100
AcDb2dPolyline
 66
     1
 10
0.0
 20
0.0
 30
0.0
  0
VERTEX
  5
1CB
330
1CA
100
AcDbEntity
  8
\U+30EC\U+30A4\U+30E4\U+30FC 1
 62
   250
420
  2234132
370
    18
100
AcDbVertex
100
AcDb2dVertex
 10
905.6393748881253
 20
-151.6425235024238
 30
0.0
  0
VERTEX
  5
1CC
330
1CA
100
AcDbEntity
  8
\U+30EC\U+30A4\U+30E4\U+30FC 1
 62
   250
420
  2234132
370
    18
100
AcDbVertex
100
AcDb2dVertex
 10
905.6393748881253
 20
-20.7277751705523
 30
0.0
  0
VERTEX
  5
1CD
330
1CA
100
AcDbEntity
  8
\U+30EC\U+30A4\U+30E4\U+30FC 1
 62
   250
420
  2234132
370
    18
100
AcDbVertex
100
AcDb2dVertex
 10
814.8124730874476
 20
-20.7277751705523
 30
0.0
  0
VERTEX
  5
1CE
330
1CA
100
AcDbEntity
  8
\U+30EC\U+30A4\U+30E4\U+30FC 1
 62
   250
420
  2234132
370
    18
100
AcDbVertex
100
AcDb2dVertex
 10
814.8124730874476
 20
-151.8702444642251
 30
0.0
  0
SEQEND
  5
1CF
330
1CA
100
AcDbEntity
  8
\U+30EC\U+30A4\U+30E4\U+30FC 1
370
    18
  0
SPLINE
  5
1D0
330
18D
100
AcDbEntity
  8
\U+30EC\U+30A4\U+30E4\U+30FC 1
 62
   250
420
  2234132
370
    18
100
AcDbSpline
210
0.0
220
0.0
230
1.0
 70
    11
 71
     3
 72
    17
 73
    13
 74
     0
 42
0.0000000001
 43
0.0000000001
 40
0.0
 40
0.0
 40
0.0
 40
0.0
 40
1.0
 40
1.0
 40
1.0
 40
2.0
 40
2.0
 40
2.0
 40
3.0
 40
3.0
 40
3.0
 40
4.0
 40
4.0
 40
4.0
 40
4.0
 10
794.8563998146788
 20
22.07515290369111
 30
0.0
 10
794.8563998146788
 20
16.69976687194349
 30
0.0
 10
799.3364049391321
 20
12.34206271789775
 30
0.0
 10
804.8637197820059
 20
12.34206271789775
 30
0.0
 10
810.3906901151038
 20
12.34206271789775
 30
0.0
 10
814.8713842591087
 20
16.69976687194349
 30
0.0
 10
814.8713842591087
 20
22.07515290369111
 30
0.0
 10
814.8713842591087
 20
27.45053893543873
 30
0.0
 10
810.3906901151038
 20
31.80824308948447
 30
0.0
 10
804.8637197820059
 20
31.80824308948447
 30
0.0
 10
799.3364049391321
 20
31.80824308948447
 30
0.0
 10
794.8563998146788
 20
27.45053893543873
 30
0.0
 10
794.8563998146788
 20
22.07515290369111
 30
0.0
  0
SPLINE
  5
1D1
330
18D
100
AcDbEntity
  8
\U+30EC\U+30A4\U+30E4\U+30FC 1
 62
   250
420
  2234132
370
    18
100
AcDbSpline
210
0.0
220
0.0
230
1.0
 70
    11
 71
     3
 72
    17
 73
    13
 74
     0
 42
0.0000000001
 43
0.0000000001
 40
0.0
 40
0.0
 40
0.0
 40
0.0
 40
1.0
 40
1.0
 40
1.0
 40
2.0
 40
2.0
 40
2.0
 40
3.0
 40
3.0
 40
3.0
 40
4.0
 40
4.0
 40
4.0
 40
4.0
 10
801.5278316229716
 20
22.07515290369111
 30
0.0
 10
801.5278316229716
 20
20.28335755977524
 30
0.0
 10
803.021281501048
 20
18.83090434501859
 30
0.0
 10
804.8637197820059
 20
18.83090434501859
 30
0.0
 10
806.7061580629637
 20
18.83090434501859
 30
0.0
 10
808.1996079410401
 20
20.28335755977524
 30
0.0
 10
808.1996079410401
 20
22.07515290369111
 30
0.0
 10
808.1996079410401
 20
23.86729275738278
 30
0.0
 10
806.7061580629637
 20
25.31974597213943
 30
0.0
 10
804.8637197820059
 20
25.31974597213943
 30
0.0
 10
803.021281501048
 20
25.31974597213943
 30
0.0
 10
801.5278316229716
 20
23.86729275738278
 30
0.0
 10
801.5278316229716
 20
22.07515290369111
 30
0.0
  0
SPLINE
  5
1D2
330
18D
100
AcDbEntity
  8
\U+30EC\U+30A4\U+30E4\U+30FC 1
 62
   250
420
  2234132
370
    18
100
AcDbSpline
210
0.0
220
0.0
230
1.0
 70
     8
 71
     3
 72
    23
 73
    19
 74
     0
 42
0.0000000001
 43
0.0000000001
 40
0.0
 40
0.0
 40
0.0
 40
0.0
 40
1.0
 40
1.0
 40
1.0
 40
2.0
 40
2.0
 40
2.0
 40
3.0
 40
3.0
 40
3.0
 40
4.0
 40
4.0
 40
4.0
 40
5.0
 40
5.0
 40
5.0
 40
6.0
 40
6.0
 40
6.0
 40
6.0
 10
832.0183248200357
 20
35.50862259131112
 30
0.0
 10
832.0183248200357
 20
35.50862259131112
 30
0.0
 10
810.1305852343777
 20
35.50862259131112
 30
0.0
 10
804.9808531057765
 20
35.50862259131112
 30
0.0
 10
794.7974886430176
 20
35.50862259131112
 30
0.0
 10
790.4673452710356
 20
28.56399453081195
 30
0.0
 10
790.4673452710356
 20
25.26290185913306
 30
0.0
 10
790.4673452710356
 20
21.96146467767838
 30
0.0
 10
790.4673452710356
 20
1.698433194675112
 30
0.0
 10
790.4673452710356
 20
1.698433194675112
 30
0.0
 10
790.4673452710356
 20
1.698433194675112
 30
0.0
 10
792.8079446877947
 20
1.698433194675112
 30
0.0
 10
793.627188934638
 20
1.698433194675112
 30
0.0
 10
794.7974886430176
 20
1.698433194675112
 30
0.0
 10
794.6806998290227
 20
4.088986528924728
 30
0.0
 10
794.6806998290227
 20
5.113214092366738
 30
0.0
 10
794.6806998290227
 20
6.13813067536034
 30
0.0
 10
794.6806998290227
 20
20.48110617108224
 30
0.0
 10
794.6806998290227
 20
22.07515290369111
 30
0.0
  0
SPLINE
  5
1D3
330
18D
100
AcDbEntity
  8
\U+30EC\U+30A4\U+30E4\U+30FC 1
 62
   250
420
  2234132
370
    18
100
AcDbSpline
210
0.0
220
0.0
230
1.0
 70
     8
 71
     3
 72
    32
 73
    28
 74
     0
 42
0.0000000001
 43
0.0000000001
 40
0.0
 40
0.0
 40
0.0
 40
0.0
 40
1.0
 40
1.0
 40
1.0
 40
2.0
 40
2.0
 40
2.0
 40
3.0
 40
3.0
 40
3.0
 40
4.0
 40
4.0
 40
4.0
 40
5.0
 40
5.0
 40
5.0
 40
6.0
 40
6.0
 40
6.0
 40
7.0
 40
7.0
 40
7.0
 40
8.0
 40
8.0
 40
8.0
 40
9.0
 40
9.0
 40
9.0
 40
9.0
 10
812.0033403756056
 20
29.01943645441449
 30
0.0
 10
812.0033403756056
 20
29.01943645441449
 30
0.0
 10
861.2792626272833
 20
44.95645868274526
 30
0.0
 10
866.4289947558844
 20
46.66419364136686
 30
0.0
 10
871.5794159040371
 20
48.37227310976427
 30
0.0
 10
882.1131468087808
 20
49.16843520162922
 30
0.0
 10
888.7849231268494
 20
47.68911022436047
 30
0.0
 10
895.456699444918
 20
46.20875171776433
 30
0.0
 10
1102.95665995583
 20
-4.0645263348432
 30
0.0
 10
1111.755784139439
 20
-6.612520636631665
 30
0.0
 10
1119.422160180231
 20
-8.83219712208638
 30
0.0
 10
1120.475671074616
 20
-13.86893004422637
 30
0.0
 10
1119.422160180231
 20
-16.94230175410399
 30
0.0
 10
1118.204662632568
 20
-20.49454205233829
 30
0.0
 10
1115.295966595521
 20
-22.66323109097517
 30
0.0
 10
1107.395668416963
 20
-20.52864852014211
 30
0.0
 10
1107.395668416963
 20
-20.52864852014211
 30
0.0
 10
926.4736035793986
 20
24.12360803057513
 30
0.0
 10
915.8223948411085
 20
27.31170149579288
 30
0.0
 10
905.1708415930426
 20
30.49910594145903
 30
0.0
 10
883.8622229404979
 20
35.54548513732131
 30
0.0
 10
880.8257137766306
 20
35.7356545335608
 30
0.0
 10
873.5686153494842
 20
36.19075194738754
 30
0.0
 10
865.1415617237341
 20
33.00369201149718
 30
0.0
 10
859.0551075147432
 20
31.29595705287557
 30
0.0
 10
852.9686533057522
 20
29.58856660402976
 30
0.0
 10
814.1100176545992
 20
17.74983266857021
 30
0.0
 10
814.1100176545992
 20
17.74983266857021
 30
0.0
  0
SPLINE
  5
1D4
330
18D
100
AcDbEntity
  8
\U+30EC\U+30A4\U+30E4\U+30FC 1
 62
   250
420
  2234132
370
    18
100
AcDbSpline
210
0.0
220
0.0
230
1.0
 70
     8
 71
     3
 72
    11
 73
     7
 74
     0
 42
0.0000000001
 43
0.0000000001
 40
0.0
 40
0.0
 40
0.0
 40
0.0
 40
1.0
 40
1.0
 40
1.0
 40
2.0
 40
2.0
 40
2.0
 40
2.0
 10
812.7933012915063
 20
10.46482894958442
 30
0.0
 10
812.7933012915063
 20
-5.177292910664826
 30
0.0
 10
812.7933012915063
 20
-19.36179390952049
 30
0.0
 10
812.7933012915063
 20
-19.36179390952049
 30
0.0
 10
812.7933012915063
 20
-20.15795600138543
 30
0.0
 10
813.7589621930629
 20
-20.7277751705523
 30
0.0
 10
814.8124730874476
 20
-20.7277751705523
 30
0.0
  0
SPLINE
  5
1D5
330
18D
100
AcDbEntity
  8
\U+30EC\U+30A4\U+30E4\U+30FC 1
 62
   250
420
  2234132
370
    18
100
AcDbSpline
210
0.0
220
0.0
230
1.0
 70
     8
 71
     3
 72
    20
 73
    16
 74
     0
 42
0.0000000001
 43
0.0000000001
 40
0.0
 40
0.0
 40
0.0
 40
0.0
 40
1.0
 40
1.0
 40
1.0
 40
2.0
 40
2.0
 40
2.0
 40
3.0
 40
3.0
 40
3.0
 40
4.0
 40
4.0
 40
4.0
 40
5.0
 40
5.0
 40
5.0
 40
5.0
 10
908.1267354693737
 20
43.16535235838098
 30
0.0
 10
908.1267354693737
 20
48.98963462799101
 30
0.0
 10
908.1267354693737
 20
53.07069743207242
 30
0.0
 10
908.1267354693737
 20
53.92198108806475
 30
0.0
 10
908.1267354693737
 20
57.67886019312198
 30
0.0
 10
904.5276418416311
 20
57.84904802236528
 30
0.0
 10
903.2980864518146
 20
57.84904802236528
 30
0.0
 10
902.0695645913255
 20
57.84904802236528
 30
0.0
 10
824.2051876147543
 20
57.84904802236528
 30
0.0
 10
819.8161330711112
 20
57.84904802236528
 30
0.0
 10
815.427078527468
 20
57.84904802236528
 30
0.0
 10
812.7933012915063
 20
53.03969155225077
 30
0.0
 10
812.7933012915063
 20
51.07564132043681
 30
0.0
 10
812.7933012915063
 20
50.5003099948572
 30
0.0
 10
812.7933012915063
 20
44.21886325276566
 30
0.0
 10
812.7933012915063
 20
35.62299983687545
 30
0.0
  0
SPLINE
  5
1D6
330
18D
100
AcDbEntity
  8
\U+30EC\U+30A4\U+30E4\U+30FC 1
 62
   250
420
  2234132
370
    18
100
AcDbSpline
210
0.0
220
0.0
230
1.0
 70
     8
 71
     3
 72
    11
 73
     7
 74
     0
 42
0.0000000001
 43
0.0000000001
 40
0.0
 40
0.0
 40
0.0
 40
0.0
 40
1.0
 40
1.0
 40
1.0
 40
2.0
 40
2.0
 40
2.0
 40
2.0
 10
905.6393748881253
 20
-20.7277751705523
 30
0.0
 10
906.8096745965049
 20
-20.7277751705523
 30
0.0
 10
908.1267354693737
 20
-20.10180090793066
 30
0.0
 10
908.1267354693737
 20
-18.3086275249116
 30
0.0
 10
908.1267354693737
 20
-17.20137310550271
 30
0.0
 10
908.1267354693737
 20
8.660975763515685
 30
0.0
 10
908.1267354693737
 20
29.16034095271512
 30
0.0
  0
SPLINE
  5
1D7
330
18D
100
AcDbEntity
  8
\U+30EC\U+30A4\U+30E4\U+30FC 1
 62
   250
420
  2234132
370
    18
100
AcDbSpline
210
0.0
220
0.0
230
1.0
 70
     8
 71
     3
 72
    11
 73
     7
 74
     0
 42
0.0000000001
 43
0.0000000001
 40
0.0
 40
0.0
 40
0.0
 40
0.0
 40
1.0
 40
1.0
 40
1.0
 40
2.0
 40
2.0
 40
2.0
 40
2.0
 10
794.8243604055297
 20
12.1122746974417
 30
0.0
 10
797.3899247058838
 20
9.616645881574257
 30
0.0
 10
800.9338967694989
 20
8.07324208600742
 30
0.0
 10
804.8489058616466
 20
8.07324208600742
 30
0.0
 10
811.700171772905
 20
8.07324208600742
 30
0.0
 10
817.416277972915
 20
12.79991620993086
 30
0.0
 10
818.7378174728691
 20
19.08343001067718
 30
0.0
  0
POLYLINE
  5
1D8
330
18D
100
AcDbEntity
  8
\U+30EC\U+30A4\U+30E4\U+30FC 1
 62
   250
420
  2234132
370
    18
100
AcDb2dPolyline
 66
     1
 10
0.0
 20
0.0
 30
0.0
  0
VERTEX
  5
1D9
330
1D8
100
AcDbEntity
  8
\U+30EC\U+30A4\U+30E4\U+30FC 1
 62
   250
420
  2234132
370
    18
100
AcDbVertex
100
AcDb2dVertex
 10
854.3742531910007
 20
57.93448644676273
 30
0.0
  0
VERTEX
  5
1DA
330
1D8
100
AcDbEntity
  8
\U+30EC\U+30A4\U+30E4\U+30FC 1
 62
   250
420
  2234132
370
    18
100
AcDbVertex
100
AcDb2dVertex
 10
854.3742531910007
 20
76.96348391286412
 30
0.0
  0
SEQEND
  5
1DB
330
1D8
100
AcDbEntity
  8
\U+30EC\U+30A4\U+30E4\U+30FC 1
370
    18
  0
POLYLINE
  5
1DC
330
18D
100
AcDbEntity
  8
\U+30EC\U+30A4\U+30E4\U+30FC 1
 62
   250
420
  2234132
370
    18
100
AcDb2dPolyline
 66
     1
 10
0.0
 20
0.0
 30
0.0
  0
VERTEX
  5
1DD
330
1DC
100
AcDbEntity
  8
\U+30EC\U+30A4\U+30E4\U+30FC 1
 62
   250
420
  2234132
370
    18
100
AcDbVertex
100
AcDb2dVertex
 10
826.0490039348155
 20
57.93448644676273
 30
0.0
  0
VERTEX
  5
1DE
330
1DC
100
AcDbEntity
  8
\U+30EC\U+30A4\U+30E4\U+30FC 1
 62
   250
420
  2234132
370
    18
100
AcDbVertex
100
AcDb2dVertex
 10
826.0490039348155
 20
78.3863092869023
 30
0.0
  0
SEQEND
  5
1DF
330
1DC
100
AcDbEntity
  8
\U+30EC\U+30A4\U+30E4\U+30FC 1
370
    18
  0
ENDBLK
  5
190
330
18D
100
AcDbEntity
  8
0
100
AcDbBlockEnd
  0
ENDSEC
  0
SECTION
  2
ENTITIES
  0
INSERT
  5
3D
330
1F
100
AcDbEntity
  8
\U+30EC\U+30A4\U+30E4\U+30FC 1
100
AcDbBlockReference
  2
block 2
 10
0.0
 20
0.0
 30
0.0
  0
INSERT
  5
144
330
1F
100
AcDbEntity
  8
\U+30EC\U+30A4\U+30E4\U+30FC 1
100
AcDbBlockReference
  2
block 12
 10
0.0
 20
0.0
 30
0.0
  0
INSERT
  5
177
330
1F
100
AcDbEntity
  8
\U+30EC\U+30A4\U+30E4\U+30FC 1
100
AcDbBlockReference
  2
block 17
 10
0.0
 20
0.0
 30
0.0
  0
ENDSEC
  0
SECTION
  2
OBJECTS
  0
DICTIONARY
  5
C
330
0
100
AcDbDictionary
281
     1
  3
ACAD_GROUP
350
D
  3
ACAD_LAYOUT
350
1A
  3
ACAD_MLINESTYLE
350
17
  3
ACAD_PLOTSETTINGS
350
19
  3
ACAD_PLOTSTYLENAME
350
E
  3
ACAD_TABLESTYLE
350
1F9
  3
ACAD_VISUALSTYLE
350
2A
  0
DICTIONARY
  5
D
102
{ACAD_REACTORS
330
C
102
}
330
C
100
AcDbDictionary
281
     1
  0
DICTIONARY
  5
1A
102
{ACAD_REACTORS
330
C
102
}
330
C
100
AcDbDictionary
281
     1
  3
Layout1
350
1E
  3
Layout2
350
26
  3
Model
350
22
  0
DICTIONARY
  5
17
102
{ACAD_REACTORS
330
C
102
}
330
C
100
AcDbDictionary
281
     1
  3
Standard
350
18
  0
DICTIONARY
  5
19
102
{ACAD_REACTORS
330
C
102
}
330
C
100
AcDbDictionary
281
     1
  0
ACDBDICTIONARYWDFLT
  5
E
102
{ACAD_REACTORS
330
C
102
}
330
C
100
AcDbDictionary
281
     1
  3
Normal
350
F
100
AcDbDictionaryWithDefault
340
F
  0
DICTIONARY
  5
1F9
102
{ACAD_REACTORS
330
C
102
}
330
C
100
AcDbDictionary
281
     1
  0
DICTIONARY
  5
2A
102
{ACAD_REACTORS
330
C
102
}
330
C
100
AcDbDictionary
281
     1
  3
2dWireframe
350
2F
  3
3D Hidden
350
31
  3
3dWireframe
350
30
  3
Basic
350
32
  3
Brighten
350
36
  3
ColorChange
350
3A
  3
Conceptual
350
34
  3
Dim
350
35
  3
Facepattern
350
39
  3
Flat
350
2B
  3
FlatWithEdges
350
2C
  3
Gouraud
350
2D
  3
GouraudWithEdges
350
2E
  3
Linepattern
350
38
  3
Realistic
350
33
  3
Thicken
350
37
  0
LAYOUT
  5
1E
102
{ACAD_REACTORS
330
1A
102
}
330
1A
100
AcDbPlotSettings
  1

  2
none_device
  4

  6

 40
0.0
 41
0.0
 42
0.0
 43
0.0
 44
0.0
 45
0.0
 46
0.0
 47
0.0
 48
0.0
 49
0.0
140
0.0
141
0.0
142
1.0
143
1.0
 70
   688
 72
     0
 73
     0
 74
     5
  7

 75
    16
 76
     0
 77
     2
 78
   300
147
1.0
148
0.0
149
0.0
100
AcDbLayout
  1
Layout1
 70
     1
 71
     1
 10
0.0
 20
0.0
 11
12.0
 21
9.0
 12
0.0
 22
0.0
 32
0.0
 14
1.000000000000000E+20
 24
1.000000000000000E+20
 34
1.000000000000000E+20
 15
-1.000000000000000E+20
 25
-1.000000000000000E+20
 35
-1.000000000000000E+20
146
0.0
 13
0.0
 23
0.0
 33
0.0
 16
1.0
 26
0.0
 36
0.0
 17
0.0
 27
1.0
 37
0.0
 76
     0
330
1B
  0
LAYOUT
  5
26
102
{ACAD_REACTORS
330
1A
102
}
330
1A
100
AcDbPlotSettings
  1

  2
none_device
  4

  6

 40
0.0
 41
0.0
 42
0.0
 43
0.0
 44
0.0
 45
0.0
 46
0.0
 47
0.0
 48
0.0
 49
0.0
140
0.0
141
0.0
142
1.0
143
1.0
 70
   688
 72
     0
 73
     0
 74
     5
  7

 75
    16
 76
     0
 77
     2
 78
   300
147
1.0
148
0.0
149
0.0
100
AcDbLayout
  1
Layout2
 70
     1
 71
     2
 10
0.0
 20
0.0
 11
0.0
 21
0.0
 12
0.0
 22
0.0
 32
0.0
 14
0.0
 24
0.0
 34
0.0
 15
0.0
 25
0.0
 35
0.0
146
0.0
 13
0.0
 23
0.0
 33
0.0
 16
1.0
 26
0.0
 36
0.0
 17
0.0
 27
1.0
 37
0.0
 76
     0
330
23
  0
LAYOUT
  5
22
102
{ACAD_REACTORS
330
1A
102
}
330
1A
100
AcDbPlotSettings
  1

  2
none_device
  4

  6

 40
0.0
 41
0.0
 42
0.0
 43
0.0
 44
0.0
 45
0.0
 46
0.0
 47
0.0
 48
0.0
 49
0.0
140
0.0
141
0.0
142
1.0
143
1.0
 70
  1712
 72
     0
 73
     0
 74
     0
  7

 75
     0
 76
     0
 77
     2
 78
   300
147
1.0
148
0.0
149
0.0
100
AcDbLayout
  1
Model
 70
     1
 71
     0
 10
0.0
 20
0.0
 11
12.0
 21
9.0
 12
0.0
 22
0.0
 32
0.0
 14
1.000000000000000E+20
 24
1.000000000000000E+20
 34
1.000000000000000E+20
 15
-1.000000000000000E+20
 25
-1.000000000000000E+20
 35
-1.000000000000000E+20
146
0.0
 13
0.0
 23
0.0
 33
0.0
 16
1.0
 26
0.0
 36
0.0
 17
0.0
 27
1.0
 37
0.0
 76
     0
330
1F
331
29
  0
MLINESTYLE
  5
18
102
{ACAD_REACTORS
330
17
102
}
330
17
100
AcDbMlineStyle
  2
Standard
 70
     0
  3

 62
   256
 51
90.0
 52
90.0
 71
     2
 49
0.5
 62
   256
  6
BYLAYER
 49
-0.5
 62
   256
  6
BYLAYER
  0
ACDBPLACEHOLDER
  5
F
102
{ACAD_REACTORS
330
E
102
}
330
E
  0
VISUALSTYLE
  5
2F
102
{ACAD_REACTORS
330
2A
102
}
330
2A
100
AcDbVisualStyle
  2
2dWireframe
 70
     4
 71
     0
 72
     2
 73
     0
 90
        0
 40
-0.6
 41
-30.0
 62
     5
 63
     7
421
 16777215
 74
     1
 91
        4
 64
     7
 65
   257
 75
     1
175
     1
 42
1.0
 92
        0
 66
   257
 43
1.0
 76
     1
 77
     6
 78
     2
 67
     7
 79
     5
170
     0
171
     0
290
     0
174
     0
 93
        1
 44
0.0
173
     0
291
     0
 45
0.0
1001
ACAD
1000
AcDbSavedByObjectVersion
1070
     0
  0
VISUALSTYLE
  5
31
102
{ACAD_REACTORS
330
2A
102
}
330
2A
100
AcDbVisualStyle
  2
3D Hidden
 70
     6
 71
     1
 72
     2
 73
     2
 90
        0
 40
-0.6
 41
-30.0
 62
     5
 63
     7
421
 16777215
 74
     2
 91
        2
 64
     7
 65
   257
 75
     2
175
     1
 42
40.0
 92
        0
 66
   257
 43
1.0
 76
     1
 77
     6
 78
     2
 67
     7
 79
     3
170
     0
171
     0
290
     0
174
     0
 93
        1
 44
0.0
173
     0
291
     0
 45
0.0
1001
ACAD
1000
AcDbSavedByObjectVersion
1070
     0
  0
VISUALSTYLE
  5
30
102
{ACAD_REACTORS
330
2A
102
}
330
2A
100
AcDbVisualStyle
  2
3dWireframe
 70
     5
 71
     0
 72
     2
 73
     0
 90
        0
 40
-0.6
 41
-30.0
 62
     5
 63
     7
421
 16777215
 74
     1
 91
        4
 64
     7
 65
   257
 75
     1
175
     1
 42
1.0
 92
        0
 66
   257
 43
1.0
 76
     1
 77
     6
 78
     2
 67
     7
 79
     5
170
     0
171
     0
290
     0
174
     0
 93
        1
 44
0.0
173
     0
291
     0
 45
0.0
1001
ACAD
1000
AcDbSavedByObjectVersion
1070
     0
  0
VISUALSTYLE
  5
32
102
{ACAD_REACTORS
330
2A
102
}
330
2A
100
AcDbVisualStyle
  2
Basic
 70
     7
 71
     1
 72
     0
 73
     1
 90
        0
 40
-0.6
 41
-30.0
 62
     5
 63
     7
421
 16777215
 74
     0
 91
        4
 64
     7
 65
   257
 75
     1
175
     1
 42
1.0
 92
        8
 66
     7
 43
1.0
 76
     1
 77
     6
 78
     2
 67
     7
 79
     5
170
     0
171
     0
290
     0
174
     0
 93
        1
 44
0.0
173
     0
291
     1
 45
0.0
1001
ACAD
1000
AcDbSavedByObjectVersion
1070
     0
  0
VISUALSTYLE
  5
36
102
{ACAD_REACTORS
330
2A
102
}
330
2A
100
AcDbVisualStyle
  2
Brighten
 70
    12
 71
     2
 72
     2
 73
     0
 90
        0
 40
-0.6
 41
-30.0
 62
     5
 63
     7
421
 16777215
 74
     1
 91
        4
 64
     7
 65
   257
 75
     1
175
     1
 42
1.0
 92
        8
 66
     7
 43
1.0
 76
     1
 77
     6
 78
     2
 67
     7
 79
     5
170
     0
171
     0
290
     0
174
     0
 93
        1
 44
50.0
173
     0
291
     1
 45
0.0
1001
ACAD
1000
AcDbSavedByObjectVersion
1070
     0
  0
VISUALSTYLE
  5
3A
102
{ACAD_REACTORS
330
2A
102
}
330
2A
100
AcDbVisualStyle
  2
ColorChange
 70
    16
 71
     2
 72
     2
 73
     3
 90
        0
 40
-0.6
 41
-30.0
 62
     5
 63
     8
421
  8421504
 74
     1
 91
        4
 64
     7
 65
   257
 75
     1
175
     1
 42
1.0
 92
        8
 66
     8
424
  8421504
 43
1.0
 76
     1
 77
     6
 78
     2
 67
     7
 79
     5
170
     0
171
     0
290
     0
174
     0
 93
        1
 44
0.0
173
     0
291
     1
 45
0.0
1001
ACAD
1000
AcDbSavedByObjectVersion
1070
     0
  0
VISUALSTYLE
  5
34
102
{ACAD_REACTORS
330
2A
102
}
330
2A
100
AcDbVisualStyle
  2
Conceptual
 70
     9
 71
     3
 72
     2
 73
     0
 90
        0
 40
-0.6
 41
-30.0
 62
     5
 63
     7
421
 16777215
 74
     2
 91
        2
 64
     7
 65
   257
 75
     1
175
     1
 42
40.0
 92
        8
 66
     7
 43
1.0
 76
     1
 77
     6
 78
     2
 67
     7
 79
     3
170
     0
171
     0
290
     0
174
     0
 93
        1
 44
0.0
173
     0
291
     0
 45
0.0
1001
ACAD
1000
AcDbSavedByObjectVersion
1070
     0
  0
VISUALSTYLE
  5
35
102
{ACAD_REACTORS
330
2A
102
}
330
2A
100
AcDbVisualStyle
  2
Dim
 70
    11
 71
     2
 72
     2
 73
     0
 90
        0
 40
-0.6
 41
-30.0
 62
     5
 63
     7
421
 16777215
 74
     1
 91
        4
 64
     7
 65
   257
 75
     1
175
     1
 42
1.0
 92
        8
 66
     7
 43
1.0
 76
     1
 77
     6
 78
     2
 67
     7
 79
     5
170
     0
171
     0
290
     0
174
     0
 93
        1
 44
-50.0
173
     0
291
     1
 45
0.0
1001
ACAD
1000
AcDbSavedByObjectVersion
1070
     0
  0
VISUALSTYLE
  5
39
102
{ACAD_REACTORS
330
2A
102
}
330
2A
100
AcDbVisualStyle
  2
Facepattern
 70
    15
 71
     2
 72
     2
 73
     0
 90
        0
 40
-0.6
 41
-30.0
 62
     5
 63
     7
421
 16777215
 74
     1
 91
        4
 64
     7
 65
   257
 75
     1
175
     1
 42
1.0
 92
        8
 66
     7
 43
1.0
 76
     1
 77
     6
 78
     2
 67
     7
 79
     5
170
     0
171
     0
290
     0
174
     0
 93
        1
 44
0.0
173
     0
291
     1
 45
0.0
1001
ACAD
1000
AcDbSavedByObjectVersion
1070
     0
  0
VISUALSTYLE
  5
2B
102
{ACAD_REACTORS
330
2A
102
}
330
2A
100
AcDbVisualStyle
  2
Flat
 70
     0
 71
     2
 72
     1
 73
     1
 90
        2
 40
-0.6
 41
30.0
 62
     5
 63
     7
421
 16777215
 74
     0
 91
        4
 64
     7
 65
   257
 75
     1
175
     1
 42
1.0
 92
        8
 66
     7
 43
1.0
 76
     1
 77
     6
 78
     2
 67
     7
 79
     5
170
     0
171
     0
290
     0
174
     0
 93
       13
 44
0.0
173
     0
291
     1
 45
0.0
1001
ACAD
1000
AcDbSavedByObjectVersion
1070
     0
  0
VISUALSTYLE
  5
2C
102
{ACAD_REACTORS
330
2A
102
}
330
2A
100
AcDbVisualStyle
  2
FlatWithEdges
 70
     1
 71
     2
 72
     1
 73
     1
 90
        2
 40
-0.6
 41
30.0
 62
     5
 63
     7
421
 16777215
 74
     1
 91
        4
 64
     7
 65
   257
 75
     1
175
     1
 42
1.0
 92
        0
 66
   257
 43
1.0
 76
     1
 77
     6
 78
     2
 67
     7
 79
     5
170
     0
171
     0
290
     0
174
     0
 93
       13
 44
0.0
173
     0
291
     1
 45
0.0
1001
ACAD
1000
AcDbSavedByObjectVersion
1070
     0
  0
VISUALSTYLE
  5
2D
102
{ACAD_REACTORS
330
2A
102
}
330
2A
100
AcDbVisualStyle
  2
Gouraud
 70
     2
 71
     2
 72
     2
 73
     1
 90
        2
 40
-0.6
 41
30.0
 62
     5
 63
     7
421
 16777215
 74
     0
 91
        4
 64
     7
 65
   257
 75
     1
175
     1
 42
1.0
 92
        0
 66
     7
 43
1.0
 76
     1
 77
     6
 78
     2
 67
     7
 79
     5
170
     0
171
     0
290
     0
174
     0
 93
       13
 44
0.0
173
     0
291
     1
 45
0.0
1001
ACAD
1000
AcDbSavedByObjectVersion
1070
     0
  0
VISUALSTYLE
  5
2E
102
{ACAD_REACTORS
330
2A
102
}
330
2A
100
AcDbVisualStyle
  2
GouraudWithEdges
 70
     3
 71
     2
 72
     2
 73
     1
 90
        2
 40
-0.6
 41
30.0
 62
     5
 63
     7
421
 16777215
 74
     1
 91
        4
 64
     7
 65
   257
 75
     1
175
     1
 42
1.0
 92
        0
 66
   257
 43
1.0
 76
     1
 77
     6
 78
     2
 67
     7
 79
     5
170
     0
171
     0
290
     0
174
     0
 93
       13
 44
0.0
173
     0
291
     1
 45
0.0
1001
ACAD
1000
AcDbSavedByObjectVersion
1070
     0
  0
VISUALSTYLE
  5
38
102
{ACAD_REACTORS
330
2A
102
}
330
2A
100
AcDbVisualStyle
  2
Linepattern
 70
    14
 71
     2
 72
     2
 73
     0
 90
        0
 40
-0.6
 41
-30.0
 62
     5
 63
     7
421
 16777215
 74
     1
 91
        4
 64
     7
 65
   257
 75
     7
175
     7
 42
1.0
 92
        8
 66
     7
 43
1.0
 76
     1
 77
     6
 78
     2
 67
     7
 79
     5
170
     0
171
     0
290
     0
174
     0
 93
        1
 44
0.0
173
     0
291
     1
 45
0.0
1001
ACAD
1000
AcDbSavedByObjectVersion
1070
     0
  0
VISUALSTYLE
  5
33
102
{ACAD_REACTORS
330
2A
102
}
330
2A
100
AcDbVisualStyle
  2
Realistic
 70
     8
 71
     2
 72
     2
 73
     0
 90
        0
 40
-0.6
 41
-30.0
 62
     5
 63
     7
421
 16777215
 74
     1
 91
        0
 64
     7
 65
   257
 75
     1
175
     1
 42
1.0
 92
        8
 66
     8
424
  7895160
 43
1.0
 76
     1
 77
     6
 78
     2
 67
     7
 79
     5
170
     0
171
     0
290
     0
174
     0
 93
       13
 44
0.0
173
     0
291
     0
 45
0.0
1001
ACAD
1000
AcDbSavedByObjectVersion
1070
     0
  0
VISUALSTYLE
  5
37
102
{ACAD_REACTORS
330
2A
102
}
330
2A
100
AcDbVisualStyle
  2
Thicken
 70
    13
 71
     2
 72
     2
 73
     0
 90
        0
 40
-0.6
 41
-30.0
 62
     5
 63
     7
421
 16777215
 74
     1
 91
        4
 64
     7
 65
   257
 75
     1
175
     1
 42
1.0
 92
       12
 66
     7
 43
1.0
 76
     1
 77
     6
 78
     2
 67
     7
 79
     5
170
     0
171
     0
290
     0
174
     0
 93
        1
 44
0.0
173
     0
291
     1
 45
0.0
1001
ACAD
1000
AcDbSavedByObjectVersion
1070
     0
  0
ENDSEC
  0
EOF
