  0
SECTION
  2
HEADER
  9
$ACADVER
  1
AC1015
  9
$ACADMAINTVER
 70
               6
  9
$DWGCODEPAGE
  3
ANSI_932
  9
$INSBASE
 10
0.0
 20
0.0
 30
0.0
  9
$EXTMIN
 10
-1929.9338785807292
 20
-2626.6192196477659
 30
0.0
  9
$EXTMAX
 10
2148.1772325303818
 20
2968.4363359077897
 30
0.0
  9
$LIMMIN
 10
0.0
 20
0.0
  9
$LIMMAX
 10
0.0
 20
0.0
  9
$ORTHOMODE
 70
               0
  9
$REGENMODE
 70
               1
  9
$FILLMODE
 70
               1
  9
$QTEXTMODE
 70
               0
  9
$MIRRTEXT
 70
               1
  9
$LTSCALE
 40
101.59999999999999
  9
$ATTMODE
 70
               1
  9
$TEXTSIZE
 40
0.2
  9
$TRACEWID
 40
1.0
  9
$TEXTSTYLE
  7
Standard
  9
$CLAYER
  8
0
  9
$CELTYPE
  6
Continuous
  9
$CECOLOR
 62
             256
  9
$CELTSCALE
 40
1.0
  9
$DISPSILH
 70
               0
  9
$DIMSCALE
 40
1.0
  9
$DIMASZ
 40
0.18
  9
$DIMEXO
 40
0.0625
  9
$DIMDLI
 40
0.38
  9
$DIMRND
 40
0.0
  9
$DIMDLE
 40
0.0
  9
$DIMEXE
 40
0.18
  9
$DIMTP
 40
0.0
  9
$DIMTM
 40
0.0
  9
$DIMTXT
 40
0.18
  9
$DIMCEN
 40
0.09
  9
$DIMTSZ
 40
0.0
  9
$DIMTOL
 70
               0
  9
$DIMLIM
 70
               0
  9
$DIMTIH
 70
               1
  9
$DIMTOH
 70
               1
  9
$DIMSE1
 70
               0
  9
$DIMSE2
 70
               0
  9
$DIMTAD
 70
               0
  9
$DIMZIN
 70
               0
  9
$DIMBLK
  1

  9
$DIMASO
 70
               1
  9
$DIMSHO
 70
               1
  9
$DIMPOST
  1

  9
$DIMAPOST
  1

  9
$DIMALT
 70
               0
  9
$DIMALTD
 70
               2
  9
$DIMALTF
 40
25.399999999999999
  9
$DIMLFAC
 40
1.0
  9
$DIMTOFL
 70
               0
  9
$DIMTVP
 40
0.0
  9
$DIMTIX
 70
               0
  9
$DIMSOXD
 70
               0
  9
$DIMSAH
 70
               0
  9
$DIMBLK1
  1

  9
$DIMBLK2
  1

  9
$DIMSTYLE
  2
Standard
  9
$DIMCLRD
 70
               0
  9
$DIMCLRE
 70
               0
  9
$DIMCLRT
 70
               0
  9
$DIMTFAC
 40
1.0
  9
$DIMGAP
 40
0.09
  9
$DIMJUST
 70
               0
  9
$DIMSD1
 70
               0
  9
$DIMSD2
 70
               0
  9
$DIMTOLJ
 70
               1
  9
$DIMTZIN
 70
               0
  9
$DIMALTZ
 70
               0
  9
$DIMALTTZ
 70
               0
  9
$DIMUPT
 70
               0
  9
$DIMDEC
 70
               4
  9
$DIMTDEC
 70
               4
  9
$DIMALTU
 70
               2
  9
$DIMALTTD
 70
               2
  9
$DIMTXSTY
  7
Standard
  9
$DIMAUNIT
 70
               0
  9
$DIMADEC
 70
               0
  9
$DIMALTRND
 40
0.0
  9
$DIMAZIN
 70
               0
  9
$DIMDSEP
 70
               0
  9
$DIMATFIT
 70
               3
  9
$DIMFRAC
 70
               0
  9
$DIMLDRBLK
  1

  9
$DIMLUNIT
 70
               2
  9
$DIMLWD
 70
               0
  9
$DIMLWE
 70
               0
  9
$DIMTMOVE
 70
               0
  9
$LUNITS
 70
               2
  9
$LUPREC
 70
               4
  9
$SKETCHINC
 40
0.1
  9
$FILLETRAD
 40
0.0
  9
$AUNITS
 70
               0
  9
$AUPREC
 70
               0
  9
$MENU
  1
acad
  9
$ELEVATION
 40
0.0
  9
$PELEVATION
 40
0.0
  9
$THICKNESS
 40
0.0
  9
$LIMCHECK
 70
               0
  9
$CHAMFERA
 40
0.0
  9
$CHAMFERB
 40
0.0
  9
$CHAMFERC
 40
0.0
  9
$CHAMFERD
 40
0.0
  9
$SKPOLY
 70
               0
  9
$TDCREATE
 40
2454560.451655093
  9
$TDUCREATE
 40
0.000000000
  9
$TDUPDATE
 40
2454560.451655093
  9
$TDUUPDATE
 40
0.000000000
  9
$TDINDWG
 40
0.0000000000
  9
$TDUSRTIMER
 40
0.0000000000
  9
$USRTIMER
 70
               1
  9
$ANGBASE
 50
0.0
  9
$ANGDIR
 70
               0
  9
$PDMODE
 70
               1
  9
$PDSIZE
 40
-2.0
  9
$PLINEWID
 40
0.0
  9
$SPLFRAME
 70
               0
  9
$SPLINETYPE
 70
               6
  9
$SPLINESEGS
 70
               8
  9
$HANDSEED
  5
313
  9
$SURFTAB1
 70
               6
  9
$SURFTAB2
 70
               6
  9
$SURFTYPE
 70
               6
  9
$SURFU
 70
               6
  9
$SURFV
 70
               6
  9
$UCSBASE
  2

  9
$UCSNAME
  2

  9
$UCSORG
 10
0.0
 20
0.0
 30
0.0
  9
$UCSXDIR
 10
1.0
 20
0.0
 30
0.0
  9
$UCSYDIR
 10
0.0
 20
1.0
 30
0.0
  9
$UCSORTHOREF
  2

  9
$UCSORTHOVIEW
 70
               0
  9
$UCSORGTOP
 10
0.0
 20
0.0
 30
0.0
  9
$UCSORGBOTTOM
 10
0.0
 20
0.0
 30
0.0
  9
$UCSORGLEFT
 10
0.0
 20
0.0
 30
0.0
  9
$UCSORGRIGHT
 10
0.0
 20
0.0
 30
0.0
  9
$UCSORGFRONT
 10
0.0
 20
0.0
 30
0.0
  9
$UCSORGBACK
 10
0.0
 20
0.0
 30
0.0
  9
$PUCSBASE
  2

  9
$PUCSNAME
  2

  9
$PUCSORG
 10
0.0
 20
0.0
 30
0.0
  9
$PUCSXDIR
 10
1.0
 20
0.0
 30
0.0
  9
$PUCSYDIR
 10
0.0
 20
1.0
 30
0.0
  9
$PUCSORTHOREF
  2

  9
$PUCSORTHOVIEW
 70
               0
  9
$PUCSORGTOP
 10
0.0
 20
0.0
 30
0.0
  9
$PUCSORGBOTTOM
 10
0.0
 20
0.0
 30
0.0
  9
$PUCSORGLEFT
 10
0.0
 20
0.0
 30
0.0
  9
$PUCSORGRIGHT
 10
0.0
 20
0.0
 30
0.0
  9
$PUCSORGFRONT
 10
0.0
 20
0.0
 30
0.0
  9
$PUCSORGBACK
 10
0.0
 20
0.0
 30
0.0
  9
$USERI1
 70
               0
  9
$USERI2
 70
               0
  9
$USERI3
 70
               0
  9
$USERI4
 70
               0
  9
$USERI5
 70
               0
  9
$USERR1
 40
0.0
  9
$USERR2
 40
0.0
  9
$USERR3
 40
0.0
  9
$USERR4
 40
0.0
  9
$USERR5
 40
0.0
  9
$WORLDVIEW
 70
               1
  9
$SHADEDGE
 70
               3
  9
$SHADEDIF
 70
              70
  9
$TILEMODE
 70
               1
  9
$MAXACTVP
 70
              16
  9
$PINSBASE
 10
0.0
 20
0.0
 30
0.0
  9
$PLIMCHECK
 70
               0
  9
$PEXTMIN
 10
1.0000000000000000E+20
 20
1.0000000000000000E+20
 30
1.0000000000000000E+20
  9
$PEXTMAX
 10
-1.0000000000000000E+20
 20
-1.0000000000000000E+20
 30
-1.0000000000000000E+20
  9
$PLIMMIN
 10
0.0
 20
0.0
  9
$PLIMMAX
 10
12.0
 20
9.0
  9
$UNITMODE
 70
               0
  9
$VISRETAIN
 70
               0
  9
$PLINEGEN
 70
               1
  9
$PSLTSCALE
 70
               0
  9
$TREEDEPTH
 70
            3020
  9
$CMLSTYLE
  2
Standard
  9
$CMLJUST
 70
               0
  9
$CMLSCALE
 40
1.0
  9
$PROXYGRAPHICS
 70
               0
  9
$MEASUREMENT
 70
               1
  9
$CELWEIGHT
370
               0
  9
$ENDCAPS
280
               0
  9
$JOINSTYLE
280
               0
  9
$LWDISPLAY
290
               1
  9
$INSUNITS
 70
               4
  9
$HYPERLINKBASE
  1

  9
$XEDIT
290
               1
  9
$CEPSNTYPE
380
               0
  9
$PSTYLEMODE
290
               1
  9
$FINGERPRINTGUID
  2

  9
$VERSIONGUID
  2

  9
$EXTNAMES
290
               1
  9
$PSVPSCALE
 40
0.0
  0
ENDSEC
  0
SECTION
  2
CLASSES
  0
CLASS
  1
LWPOLYLINE
  2
AcDbPolyline
  3
AutoCAD 2000
 90
    32768
280
               0
281
               1
  0
CLASS
  1
IMAGE
  2
AcDbRasterImage
  3
ISM
 90
    32895
280
               0
281
               1
  0
CLASS
  1
OLE2FRAME
  2
AcDbOle2Frame
  3
AutoCAD 2000
 90
    32768
280
               0
281
               1
  0
CLASS
  1
HATCH
  2
AcDbHatch
  3
AutoCAD 2000
 90
    32768
280
               0
281
               1
  0
CLASS
  1
DICTIONARYVAR
  2
AcDbDictionaryVar
  3
AutoCAD 2000
 90
    32768
280
               0
281
               0
  0
CLASS
  1
RASTERVARIABLES
  2
AcDbRasterVariables
  3
ISM
 90
    32768
280
               0
281
               0
  0
CLASS
  1
IMAGEDEF
  2
AcDbRasterImageDef
  3
ISM
 90
    32768
280
               0
281
               0
  0
CLASS
  1
IMAGEDEF_REACTOR
  2
AcDbRasterImageDefReactor
  3
ISM
 90
    32769
280
               0
281
               0
  0
CLASS
  1
IDBUFFER
  2
AcDbIdBuffer
  3
AutoCAD 2000
 90
    32768
280
               0
281
               0
  0
CLASS
  1
SPATIAL_FILTER
  2
AcDbSpatialFilter
  3
AutoCAD 2000
 90
    32768
280
               0
281
               0
  0
CLASS
  1
XRECORD
  2
AcDbXrecord
  3
AutoCAD 2000
 90
    32768
280
               0
281
               0
  0
CLASS
  1
SORTENTSTABLE
  2
AcDbSortentsTable
  3
AutoCAD 2000
 90
    32768
280
               0
281
               0
  0
CLASS
  1
LAYER_INDEX
  2
AcDbLayerIndex
  3
AutoCAD 2000
 90
    32768
280
               0
281
               0
  0
CLASS
  1
SPATIAL_INDEX
  2
AcDbSpatialIndex
  3
AutoCAD 2000
 90
    32768
280
               0
281
               0
  0
CLASS
  1
OBJECT_PTR
  2
CAseDLPNTableRecord
  3
"ASE-LPNTableRecord"
 90
    32769
280
               0
281
               0
  0
CLASS
  1
LAYOUT
  2
AcDbLayout
  3
AutoCAD 2000
 90
        0
280
               0
281
               0
  0
CLASS
  1
PLOTSETTINGS
  2
AcDbPlotSettings
  3
AutoCAD 2000
 90
    32768
280
               0
281
               0
  0
CLASS
  1
ACDBDICTIONARYWDFLT
  2
AcDbDictionaryWithDefault
  3
AutoCAD 2000
 90
        0
280
               0
281
               0
  0
CLASS
  1
ACDBPLACEHOLDER
  2
AcDbPlaceHolder
  3
AutoCAD 2000
 90
        0
280
               0
281
               0
  0
ENDSEC
  0
SECTION
  2
TABLES
  0
TABLE
  2
VPORT
  5
7
100
AcDbSymbolTable
 70
               1
  0
VPORT
  5
15
100
AcDbSymbolTableRecord
100
AcDbViewportTableRecord
  2
*ACTIVE
 70
               0
 10
0.0
 20
0.0
 11
1.0
 21
1.0
 12
109.12167697482641
 22
170.9085581300119
 13
0.0
 23
0.0
 14
1.0
 24
1.0
 15
0.0
 25
0.0
 16
0.0
 26
0.0
 36
1.0
 17
0.0
 27
0.0
 37
0.0
 40
5595.0555555555557
 41
0.688564
 42
50.0
 43
0.0
 44
0.0
 50
0.0
 51
0.0
 71
               0
 72
             100
 73
               1
 74
               1
 75
               0
 76
               0
 77
               0
 78
               0
281
               0
 65
               0
110
0.0
120
0.0
130
0.0
111
1.0
121
0.0
131
0.0
112
0.0
122
1.0
132
0.0
345
0
346
0
 79
               0
146
0.0
  0
ENDTAB
  0
TABLE
  2
LTYPE
  5
4
100
AcDbSymbolTable
 70
              14
  0
LTYPE
  5
11
100
AcDbSymbolTableRecord
100
AcDbLinetypeTableRecord
  2
ByBlock
 70
              64
  3

 72
              65
 73
               0
 40
0.0
  0
LTYPE
  5
12
100
AcDbSymbolTableRecord
100
AcDbLinetypeTableRecord
  2
ByLayer
 70
              64
  3

 72
              65
 73
               0
 40
0.0
  0
LTYPE
  5
13
100
AcDbSymbolTableRecord
100
AcDbLinetypeTableRecord
  2
Continuous
 70
              64
  3
Solid line
 72
              65
 73
               0
 40
0.0
  0
LTYPE
  5
28
100
AcDbSymbolTableRecord
100
AcDbLinetypeTableRecord
  2
STYLE_01
 70
               0
  3

 72
              65
 73
               2
 40
0.1476354151964188
 49
0.0984236101309458
 74
               0
 49
-0.0492118050654729
 74
               0
  0
LTYPE
  5
29
100
AcDbSymbolTableRecord
100
AcDbLinetypeTableRecord
  2
STYLE_02
 70
               0
  3

 72
              65
 73
               2
 40
0.1968506971995035
 49
0.1968506971995035
 74
               0
 49
-0.0005
 74
               0
  0
LTYPE
  5
2A
100
AcDbSymbolTableRecord
100
AcDbLinetypeTableRecord
  2
STYLE_03
 70
               0
  3

 72
              65
 73
               2
 40
1.25
 49
1.0416400000000001
 74
               0
 49
-0.2083599999999999
 74
               0
  0
LTYPE
  5
2B
100
AcDbSymbolTableRecord
100
AcDbLinetypeTableRecord
  2
STYLE_04
 70
               0
  3

 72
              65
 73
               2
 40
1.5277099999999999
 49
1.3194249999999998
 74
               0
 49
-0.208285
 74
               0
  0
LTYPE
  5
2C
100
AcDbSymbolTableRecord
100
AcDbLinetypeTableRecord
  2
STYLE_05
 70
               0
  3

 72
              65
 73
               2
 40
0.20828
 49
0.069425
 74
               0
 49
-0.138855
 74
               0
  0
LTYPE
  5
2D
100
AcDbSymbolTableRecord
100
AcDbLinetypeTableRecord
  2
STYLE_06
 70
               0
  3

 72
              65
 73
               4
 40
1.0416400000000001
 49
0.625
 74
               0
 49
-0.20828
 74
               0
 49
0.06943
 74
               0
 49
-0.13893
 74
               0
  0
LTYPE
  5
2E
100
AcDbSymbolTableRecord
100
AcDbLinetypeTableRecord
  2
STYLE_07
 70
               0
  3

 72
              65
 73
               6
 40
1.875
 49
0.625
 74
               0
 49
-0.20828
 74
               0
 49
0.6250000000000001
 74
               0
 49
-0.2083599999999999
 74
               0
 49
0.06943
 74
               0
 49
-0.1389299999999999
 74
               0
  0
LTYPE
  5
2F
100
AcDbSymbolTableRecord
100
AcDbLinetypeTableRecord
  2
STYLE_08
 70
               0
  3

 72
              65
 73
               6
 40
1.25
 49
0.625
 74
               0
 49
-0.20828
 74
               0
 49
0.06943
 74
               0
 49
-0.13893
 74
               0
 49
0.0694299999999999
 74
               0
 49
-0.13893
 74
               0
  0
LTYPE
  5
30
100
AcDbSymbolTableRecord
100
AcDbLinetypeTableRecord
  2
STYLE_09
 70
               0
  3

 72
              65
 73
               4
 40
5.0
 49
3.75
 74
               0
 49
-0.2777849999999998
 74
               0
 49
0.6944300000000003
 74
               0
 49
-0.2777849999999998
 74
               0
  0
LTYPE
  5
31
100
AcDbSymbolTableRecord
100
AcDbLinetypeTableRecord
  2
STYLE_10
 70
               0
  3

 72
              65
 73
               6
 40
5.9375
 49
3.75
 74
               0
 49
-0.2777849999999998
 74
               0
 49
0.6944300000000003
 74
               0
 49
-0.2777849999999998
 74
               0
 49
0.625
 74
               0
 49
-0.3125
 74
               0
  0
LTYPE
  5
32
100
AcDbSymbolTableRecord
100
AcDbLinetypeTableRecord
  2
STYLE_11
 70
               0
  3

 72
              65
 73
               2
 40
0.4166412353515625
 49
0.208282470703125
 74
               0
 49
-0.2083587646484375
 74
               0
  0
ENDTAB
  0
TABLE
  2
LAYER
  5
2
100
AcDbSymbolTable
 70
               3
  0
LAYER
  5
14
100
AcDbSymbolTableRecord
100
AcDbLayerTableRecord
  2
0
 70
               0
 62
               7
  6
Continuous
290
               1
370
              -3
390
1D
  0
LAYER
  5
33
100
AcDbSymbolTableRecord
100
AcDbLayerTableRecord
  2
一般
 70
               0
 62
               7
  6
Continuous
290
               1
370
               5
390
1F
  0
LAYER
  5
34
100
AcDbSymbolTableRecord
100
AcDbLayerTableRecord
  2
寸法
 70
               0
 62
               7
  6
Continuous
290
               1
370
               5
390
1F
  0
ENDTAB
  0
TABLE
  2
STYLE
  5
3
100
AcDbSymbolTable
 70
               1
  0
STYLE
  5
17
100
AcDbSymbolTableRecord
100
AcDbTextStyleTableRecord
  2
Standard
 70
               0
 40
0.0
 41
1.0
 50
0.0
 71
               0
 42
0.0
  3
txt
  4
BIGFONT.SHX
  0
ENDTAB
  0
TABLE
  2
VIEW
  5
5
100
AcDbSymbolTable
 70
               0
  0
ENDTAB
  0
TABLE
  2
UCS
  5
6
100
AcDbSymbolTable
 70
               0
  0
ENDTAB
  0
TABLE
  2
APPID
  5
8
100
AcDbSymbolTable
 70
               1
  0
APPID
  5
16
100
AcDbSymbolTableRecord
100
AcDbRegAppTableRecord
  2
ACAD
 70
               0
  0
ENDTAB
  0
TABLE
  2
DIMSTYLE
  5
9
100
AcDbSymbolTable
 70
               1
100
AcDbDimStyleTable
 71
               0
  0
DIMSTYLE
105
18
100
AcDbSymbolTableRecord
100
AcDbDimStyleTableRecord
  2
Standard
 70
               0
  3

  4

 40
1.0
 41
0.18
 42
0.0625
 43
0.38
 44
0.18
 45
0.0
 46
0.0
 47
0.0
 48
0.0
 71
               0
 72
               0
 73
               1
 74
               1
 75
               0
 76
               0
 77
               0
 78
               0
 79
               0
140
0.18
141
0.09
142
0.0
143
25.399999999999999
144
1.0
145
0.0
146
1.0
147
0.09
148
0.0
170
               0
171
               2
172
               0
173
               0
174
               0
175
               0
176
               0
177
               0
178
               0
179
               0
271
               4
272
               4
273
               2
274
               2
275
               0
276
               0
277
               2
278
              46
279
               0
280
               0
281
               0
282
               0
283
               1
284
               0
285
               0
286
               0
288
               0
340
17
341
0
342
0
343
0
344
0
371
              -2
372
              -2
  0
ENDTAB
  0
TABLE
  2
BLOCK_RECORD
  5
1
100
AcDbSymbolTable
 70
               5
  0
BLOCK_RECORD
  5
A
100
AcDbSymbolTableRecord
100
AcDbBlockTableRecord
  2
*MODEL_SPACE
340
20
  0
BLOCK_RECORD
  5
B
100
AcDbSymbolTableRecord
100
AcDbBlockTableRecord
  2
*PAPER_SPACE
340
21
  0
BLOCK_RECORD
  5
23
100
AcDbSymbolTableRecord
100
AcDbBlockTableRecord
  2
*U0
340
0
102
{BLKREFS
331
30E
102
}
  0
BLOCK_RECORD
  5
24
100
AcDbSymbolTableRecord
100
AcDbBlockTableRecord
  2
*U1
340
0
102
{BLKREFS
331
30F
102
}
  0
BLOCK_RECORD
  5
25
100
AcDbSymbolTableRecord
100
AcDbBlockTableRecord
  2
*U2
340
0
102
{BLKREFS
331
310
102
}
  0
BLOCK_RECORD
  5
26
100
AcDbSymbolTableRecord
100
AcDbBlockTableRecord
  2
*U3
340
0
102
{BLKREFS
331
311
102
}
  0
BLOCK_RECORD
  5
27
100
AcDbSymbolTableRecord
100
AcDbBlockTableRecord
  2
*U4
340
0
102
{BLKREFS
331
312
102
}
  0
ENDTAB
  0
ENDSEC
  0
SECTION
  2
BLOCKS
  0
BLOCK
  5
D
100
AcDbEntity
  8
0
100
AcDbBlockBegin
  2
*MODEL_SPACE
 70
               0
 10
0.0
 20
0.0
 30
0.0
  3
*MODEL_SPACE
  1

  0
ENDBLK
  5
E
100
AcDbEntity
  8
0
100
AcDbBlockEnd
  0
BLOCK
  5
F
100
AcDbEntity
 67
               1
  8
0
100
AcDbBlockBegin
  2
*PAPER_SPACE
 70
               0
 10
0.0
 20
0.0
 30
0.0
  3
*PAPER_SPACE
  1

  0
ENDBLK
  5
10
100
AcDbEntity
 67
               1
  8
0
100
AcDbBlockEnd
  0
BLOCK
  5
35
100
AcDbEntity
  8
一般
100
AcDbBlockBegin
  2
*U0
 70
               1
 10
0.0
 20
0.0
 30
0.0
  3
*U0
  1

  0
LINE
  5
36
100
AcDbEntity
  8
一般
370
               5
  6
Continuous
 62
               7
100
AcDbLine
 10
-1249.1216769748264
 20
1589.0914418699876
 30
0.0
 11
-1249.1216769748264
 21
1894.0914418699876
 31
0.0
  0
LINE
  5
37
100
AcDbEntity
  8
一般
370
               5
  6
Continuous
 62
               7
100
AcDbLine
 10
-149.12167697482641
 20
1589.0914418699876
 30
0.0
 11
-1249.1216769748264
 21
1589.0914418699876
 31
0.0
  0
LINE
  5
38
100
AcDbEntity
  8
一般
370
               5
  6
Continuous
 62
               7
100
AcDbLine
 10
-149.12167697482641
 20
1894.0914418699876
 30
0.0
 11
-149.12167697482641
 21
1589.0914418699876
 31
0.0
  0
LINE
  5
39
100
AcDbEntity
  8
一般
370
               5
  6
Continuous
 62
               7
100
AcDbLine
 10
-1249.1216769748264
 20
1894.0914418699876
 30
0.0
 11
-149.12167697482641
 21
1894.0914418699876
 31
0.0
  0
LINE
  5
3A
100
AcDbEntity
  8
一般
370
               5
  6
STYLE_06
 62
               7
100
AcDbLine
 10
-149.12167697482639
 20
1594.0914418699881
 30
0.0
 11
-149.12167697482639
 21
1154.0914418699881
 31
0.0
  0
LINE
  5
3B
100
AcDbEntity
  8
一般
370
               5
  6
STYLE_06
 62
               7
100
AcDbLine
 10
-587.00295671059303
 20
1550.9639001249814
 30
0.0
 11
-589.12167697482641
 21
1594.0914418699881
 31
0.0
  0
LINE
  5
3C
100
AcDbEntity
  8
一般
370
               5
  6
STYLE_06
 62
               7
100
AcDbLine
 10
-580.66720035224773
 20
1508.2517001828917
 30
0.0
 11
-587.00295671059303
 21
1550.9639001249814
 31
0.0
  0
LINE
  5
3D
100
AcDbEntity
  8
一般
370
               5
  6
STYLE_06
 62
               7
100
AcDbLine
 10
-570.17542469699833
 20
1466.3661838780247
 30
0.0
 11
-580.66720035224773
 21
1508.2517001828917
 31
0.0
  0
LINE
  5
3E
100
AcDbEntity
  8
一般
370
               5
  6
STYLE_06
 62
               7
100
AcDbLine
 10
-555.62867127979257
 20
1425.7107316293486
 30
0.0
 11
-570.17542469699833
 21
1466.3661838780247
 31
0.0
  0
LINE
  5
3F
100
AcDbEntity
  8
一般
370
               5
  6
STYLE_06
 62
               7
100
AcDbLine
 10
-537.16703328810263
 20
1386.6768776665492
 30
0.0
 11
-555.62867127979257
 21
1425.7107316293486
 31
0.0
  0
LINE
  5
40
100
AcDbEntity
  8
一般
370
               5
  6
STYLE_06
 62
               7
100
AcDbLine
 10
-514.96830638794631
 20
1349.6405393413631
 30
0.0
 11
-537.16703328810263
 21
1386.6768776665492
 31
0.0
  0
LINE
  5
41
100
AcDbEntity
  8
一般
370
               5
  6
STYLE_06
 62
               7
100
AcDbLine
 10
-489.2462764544307
 20
1314.9583968379841
 30
0.0
 11
-514.96830638794631
 21
1349.6405393413631
 31
0.0
  0
LINE
  5
42
100
AcDbEntity
  8
一般
370
               5
  6
STYLE_06
 62
               7
100
AcDbLine
 10
-460.24866069690722
 20
1282.9644581479072
 30
0.0
 11
-489.2462764544307
 21
1314.9583968379841
 31
0.0
  0
LINE
  5
43
100
AcDbEntity
  8
一般
370
               5
  6
STYLE_06
 62
               7
100
AcDbLine
 10
-428.25472200683043
 20
1253.9668423903838
 30
0.0
 11
-460.24866069690722
 21
1282.9644581479072
 31
0.0
  0
LINE
  5
44
100
AcDbEntity
  8
一般
370
               5
  6
STYLE_06
 62
               7
100
AcDbLine
 10
-393.57257950345138
 20
1228.2448124568682
 30
0.0
 11
-428.25472200683043
 21
1253.9668423903838
 31
0.0
  0
LINE
  5
45
100
AcDbEntity
  8
一般
370
               5
  6
STYLE_06
 62
               7
100
AcDbLine
 10
-356.53624117826536
 20
1206.0460855567119
 30
0.0
 11
-393.57257950345138
 21
1228.2448124568682
 31
0.0
  0
LINE
  5
46
100
AcDbEntity
  8
一般
370
               5
  6
STYLE_06
 62
               7
100
AcDbLine
 10
-317.50238721546589
 20
1187.5844475650219
 30
0.0
 11
-356.53624117826536
 21
1206.0460855567119
 31
0.0
  0
LINE
  5
47
100
AcDbEntity
  8
一般
370
               5
  6
STYLE_06
 62
               7
100
AcDbLine
 10
-276.84693496678983
 20
1173.0376941478162
 30
0.0
 11
-317.50238721546589
 21
1187.5844475650219
 31
0.0
  0
LINE
  5
48
100
AcDbEntity
  8
一般
370
               5
  6
STYLE_06
 62
               7
100
AcDbLine
 10
-234.96141866192283
 20
1162.5459184925667
 30
0.0
 11
-276.84693496678983
 21
1173.0376941478162
 31
0.0
  0
LINE
  5
49
100
AcDbEntity
  8
一般
370
               5
  6
STYLE_06
 62
               7
100
AcDbLine
 10
-192.24921871983304
 20
1156.2101621342215
 30
0.0
 11
-234.96141866192283
 21
1162.5459184925667
 31
0.0
  0
LINE
  5
4A
100
AcDbEntity
  8
一般
370
               5
  6
STYLE_06
 62
               7
100
AcDbLine
 10
-149.12167697482639
 20
1154.0914418699881
 30
0.0
 11
-192.24921871983304
 21
1156.2101621342215
 31
0.0
  0
ENDBLK
  5
4B
100
AcDbEntity
  8
一般
100
AcDbBlockEnd
  0
BLOCK
  5
4C
100
AcDbEntity
  8
一般
100
AcDbBlockBegin
  2
*U1
 70
               1
 10
0.0
 20
0.0
 30
0.0
  3
*U1
  1

  0
LINE
  5
4D
100
AcDbEntity
  8
一般
370
               5
  6
Continuous
 62
               7
100
AcDbLine
 10
-1249.1216769748273
 20
119.09144186998708
 30
0.0
 11
-1249.1216769748273
 21
569.09144186998708
 31
0.0
  0
LINE
  5
4E
100
AcDbEntity
  8
一般
370
               5
  6
Continuous
 62
               7
100
AcDbLine
 10
-1029.1216769748273
 20
119.09144186998708
 30
0.0
 11
-1249.1216769748273
 21
119.09144186998708
 31
0.0
  0
LINE
  5
4F
100
AcDbEntity
  8
一般
370
               5
  6
Continuous
 62
               7
100
AcDbLine
 10
-1029.1216769748273
 20
569.09144186998708
 30
0.0
 11
-1029.1216769748273
 21
119.09144186998708
 31
0.0
  0
LINE
  5
50
100
AcDbEntity
  8
一般
370
               5
  6
Continuous
 62
               7
100
AcDbLine
 10
-1249.1216769748273
 20
569.09144186998708
 30
0.0
 11
-1029.1216769748273
 21
569.09144186998708
 31
0.0
  0
LINE
  5
51
100
AcDbEntity
  8
一般
370
               5
  6
STYLE_06
 62
               7
100
AcDbLine
 10
-1029.1216769748273
 20
119.09144186998708
 30
0.0
 11
-1249.1216769748273
 21
344.09144186998708
 31
0.0
  0
LINE
  5
52
100
AcDbEntity
  8
一般
370
               5
  6
STYLE_06
 62
               7
100
AcDbLine
 10
-1029.1216769748273
 20
569.09144186998708
 30
0.0
 11
-1249.1216769748273
 21
344.09144186998708
 31
0.0
  0
LINE
  5
53
100
AcDbEntity
  8
一般
370
               5
  6
Continuous
 62
               7
100
AcDbLine
 10
-589.12167697482641
 20
119.09144186998708
 30
0.0
 11
-589.12167697482641
 21
569.09144186998708
 31
0.0
  0
LINE
  5
54
100
AcDbEntity
  8
一般
370
               5
  6
Continuous
 62
               7
100
AcDbLine
 10
-149.12167697482641
 20
119.09144186998708
 30
0.0
 11
-589.12167697482641
 21
119.09144186998708
 31
0.0
  0
LINE
  5
55
100
AcDbEntity
  8
一般
370
               5
  6
Continuous
 62
               7
100
AcDbLine
 10
-149.12167697482641
 20
569.09144186998708
 30
0.0
 11
-149.12167697482641
 21
119.09144186998708
 31
0.0
  0
LINE
  5
56
100
AcDbEntity
  8
一般
370
               5
  6
Continuous
 62
               7
100
AcDbLine
 10
-589.12167697482641
 20
569.09144186998708
 30
0.0
 11
-149.12167697482641
 21
569.09144186998708
 31
0.0
  0
LINE
  5
57
100
AcDbEntity
  8
一般
370
               5
  6
STYLE_06
 62
               7
100
AcDbLine
 10
-589.12167697482641
 20
569.09144186998708
 30
0.0
 11
-149.12167697482641
 21
344.09144186998708
 31
0.0
  0
LINE
  5
58
100
AcDbEntity
  8
一般
370
               5
  6
STYLE_06
 62
               7
100
AcDbLine
 10
-589.12167697482641
 20
119.09144186998708
 30
0.0
 11
-149.12167697482641
 21
344.09144186998708
 31
0.0
  0
LINE
  5
59
100
AcDbEntity
  8
一般
370
               5
  6
Continuous
 62
               7
100
AcDbLine
 10
-1029.1216769748273
 20
119.09144186998708
 30
0.0
 11
-1029.1216769748273
 21
569.09144186998708
 31
0.0
  0
LINE
  5
5A
100
AcDbEntity
  8
一般
370
               5
  6
Continuous
 62
               7
100
AcDbLine
 10
-589.12167697482641
 20
119.09144186998708
 30
0.0
 11
-1029.1216769748273
 21
119.09144186998708
 31
0.0
  0
LINE
  5
5B
100
AcDbEntity
  8
一般
370
               5
  6
Continuous
 62
               7
100
AcDbLine
 10
-589.12167697482641
 20
569.09144186998708
 30
0.0
 11
-589.12167697482641
 21
119.09144186998708
 31
0.0
  0
LINE
  5
5C
100
AcDbEntity
  8
一般
370
               5
  6
Continuous
 62
               7
100
AcDbLine
 10
-1029.1216769748273
 20
569.09144186998708
 30
0.0
 11
-589.12167697482641
 21
569.09144186998708
 31
0.0
  0
LINE
  5
5D
100
AcDbEntity
  8
一般
370
               5
  6
STYLE_06
 62
               7
100
AcDbLine
 10
-589.12167697482641
 20
119.09144186998708
 30
0.0
 11
-1029.1216769748273
 21
344.09144186998708
 31
0.0
  0
LINE
  5
5E
100
AcDbEntity
  8
一般
370
               5
  6
STYLE_06
 62
               7
100
AcDbLine
 10
-589.12167697482641
 20
569.09144186998708
 30
0.0
 11
-1029.1216769748273
 21
344.09144186998708
 31
0.0
  0
LINE
  5
5F
100
AcDbEntity
  8
一般
370
               5
  6
STYLE_11
 62
               7
100
AcDbLine
 10
-1249.1216769748273
 20
569.09144186998708
 30
0.0
 11
-149.12167697482641
 21
569.09144186998708
 31
0.0
  0
ENDBLK
  5
60
100
AcDbEntity
  8
一般
100
AcDbBlockEnd
  0
BLOCK
  5
61
100
AcDbEntity
  8
一般
100
AcDbBlockBegin
  2
*U2
 70
               1
 10
0.0
 20
0.0
 30
0.0
  3
*U2
  1

  0
LINE
  5
62
100
AcDbEntity
  8
一般
370
               5
  6
Continuous
 62
               7
100
AcDbLine
 10
-491.62167697482641
 20
-501.90855813001292
 30
0.0
 11
-499.62167697482641
 21
-501.90855813001292
 31
0.0
  0
LINE
  5
63
100
AcDbEntity
  8
一般
370
               5
  6
Continuous
 62
               7
100
AcDbLine
 10
-491.62167697482641
 20
-530.90855813001292
 30
0.0
 11
-491.62167697482641
 21
-501.90855813001292
 31
0.0
  0
LINE
  5
64
100
AcDbEntity
  8
一般
370
               5
  6
Continuous
 62
               7
100
AcDbLine
 10
-490.62167697482641
 20
-530.90855813001292
 30
0.0
 11
-491.62167697482641
 21
-530.90855813001292
 31
0.0
  0
LINE
  5
65
100
AcDbEntity
  8
一般
370
               5
  6
Continuous
 62
               7
100
AcDbLine
 10
-482.62167697482641
 20
-530.90855813001292
 30
0.0
 11
-490.62167697482641
 21
-530.90855813001292
 31
0.0
  0
LINE
  5
66
100
AcDbEntity
  8
一般
370
               5
  6
Continuous
 62
               7
100
AcDbLine
 10
-481.62167697482641
 20
-530.90855813001292
 30
0.0
 11
-482.62167697482641
 21
-530.90855813001292
 31
0.0
  0
LINE
  5
67
100
AcDbEntity
  8
一般
370
               5
  6
Continuous
 62
               7
100
AcDbLine
 10
-481.62167697482641
 20
-501.90855813001292
 30
0.0
 11
-481.62167697482641
 21
-530.90855813001292
 31
0.0
  0
LINE
  5
68
100
AcDbEntity
  8
一般
370
               5
  6
Continuous
 62
               7
100
AcDbLine
 10
-473.62167697482641
 20
-501.90855813001292
 30
0.0
 11
-481.62167697482641
 21
-501.90855813001292
 31
0.0
  0
LINE
  5
69
100
AcDbEntity
  8
一般
370
               5
  6
Continuous
 62
               7
100
AcDbLine
 10
-471.62167697482641
 20
-501.90855813001292
 30
0.0
 11
-473.62167697482641
 21
-501.90855813001292
 31
0.0
  0
LINE
  5
6A
100
AcDbEntity
  8
一般
370
               5
  6
Continuous
 62
               7
100
AcDbLine
 10
-471.62167697482641
 20
-500.90855813001292
 30
0.0
 11
-471.62167697482641
 21
-501.90855813001292
 31
0.0
  0
LINE
  5
6B
100
AcDbEntity
  8
一般
370
               5
  6
Continuous
 62
               7
100
AcDbLine
 10
-473.62167697482641
 20
-500.90855813001292
 30
0.0
 11
-471.62167697482641
 21
-500.90855813001292
 31
0.0
  0
LINE
  5
6C
100
AcDbEntity
  8
一般
370
               5
  6
Continuous
 62
               7
100
AcDbLine
 10
-481.62167697482641
 20
-500.90855813001292
 30
0.0
 11
-473.62167697482641
 21
-500.90855813001292
 31
0.0
  0
LINE
  5
6D
100
AcDbEntity
  8
一般
370
               5
  6
Continuous
 62
               7
100
AcDbLine
 10
-482.62167697482641
 20
-500.90855813001292
 30
0.0
 11
-481.62167697482641
 21
-500.90855813001292
 31
0.0
  0
LINE
  5
6E
100
AcDbEntity
  8
一般
370
               5
  6
Continuous
 62
               7
100
AcDbLine
 10
-482.62167697482641
 20
-529.90855813001292
 30
0.0
 11
-482.62167697482641
 21
-500.90855813001292
 31
0.0
  0
LINE
  5
6F
100
AcDbEntity
  8
一般
370
               5
  6
Continuous
 62
               7
100
AcDbLine
 10
-490.62167697482641
 20
-529.90855813001292
 30
0.0
 11
-482.62167697482641
 21
-529.90855813001292
 31
0.0
  0
LINE
  5
70
100
AcDbEntity
  8
一般
370
               5
  6
Continuous
 62
               7
100
AcDbLine
 10
-490.62167697482641
 20
-500.90855813001292
 30
0.0
 11
-490.62167697482641
 21
-529.90855813001292
 31
0.0
  0
LINE
  5
71
100
AcDbEntity
  8
一般
370
               5
  6
Continuous
 62
               7
100
AcDbLine
 10
-491.62167697482641
 20
-500.90855813001292
 30
0.0
 11
-490.62167697482641
 21
-500.90855813001292
 31
0.0
  0
LINE
  5
72
100
AcDbEntity
  8
一般
370
               5
  6
Continuous
 62
               7
100
AcDbLine
 10
-499.62167697482641
 20
-500.90855813001292
 30
0.0
 11
-491.62167697482641
 21
-500.90855813001292
 31
0.0
  0
LINE
  5
73
100
AcDbEntity
  8
一般
370
               5
  6
Continuous
 62
               7
100
AcDbLine
 10
-501.62167697482641
 20
-500.90855813001292
 30
0.0
 11
-499.62167697482641
 21
-500.90855813001292
 31
0.0
  0
LINE
  5
74
100
AcDbEntity
  8
一般
370
               5
  6
Continuous
 62
               7
100
AcDbLine
 10
-501.62167697482641
 20
-501.90855813001292
 30
0.0
 11
-501.62167697482641
 21
-500.90855813001292
 31
0.0
  0
LINE
  5
75
100
AcDbEntity
  8
一般
370
               5
  6
Continuous
 62
               7
100
AcDbLine
 10
-499.62167697482641
 20
-501.90855813001292
 30
0.0
 11
-501.62167697482641
 21
-501.90855813001292
 31
0.0
  0
LINE
  5
76
100
AcDbEntity
  8
一般
370
               5
  6
Continuous
 62
               7
100
AcDbLine
 10
-599.50227931226971
 20
-1167.8219752918376
 30
0.0
 11
-600.58614306889319
 21
-1169.444092035945
 31
0.0
  0
LINE
  5
77
100
AcDbEntity
  8
一般
370
               5
  6
Continuous
 62
               7
100
AcDbLine
 10
-599.12167697482641
 20
-1165.9085581300121
 30
0.0
 11
-599.50227931226971
 21
-1167.8219752918376
 31
0.0
  0
LINE
  5
78
100
AcDbEntity
  8
一般
370
               5
  6
Continuous
 62
               7
100
AcDbLine
 10
-599.50227931227028
 20
-1163.9951409681867
 30
0.0
 11
-599.12167697482641
 21
-1165.9085581300121
 31
0.0
  0
LINE
  5
79
100
AcDbEntity
  8
一般
370
               5
  6
Continuous
 62
               7
100
AcDbLine
 10
-600.58614306889422
 20
-1162.3730242240795
 30
0.0
 11
-599.50227931227028
 21
-1163.9951409681867
 31
0.0
  0
LINE
  5
7A
100
AcDbEntity
  8
一般
370
               5
  6
Continuous
 62
               7
100
AcDbLine
 10
-602.20825981300163
 20
-1161.2891604674562
 30
0.0
 11
-600.58614306889422
 21
-1162.3730242240795
 31
0.0
  0
LINE
  5
7B
100
AcDbEntity
  8
一般
370
               5
  6
Continuous
 62
               7
100
AcDbLine
 10
-604.1216769748271
 20
-1160.9085581300128
 30
0.0
 11
-602.20825981300163
 21
-1161.2891604674562
 31
0.0
  0
LINE
  5
7C
100
AcDbEntity
  8
一般
370
               5
  6
Continuous
 62
               7
100
AcDbLine
 10
-606.03509413665256
 20
-1161.2891604674567
 30
0.0
 11
-604.1216769748271
 21
-1160.9085581300128
 31
0.0
  0
LINE
  5
7D
100
AcDbEntity
  8
一般
370
               5
  6
Continuous
 62
               7
100
AcDbLine
 10
-607.65721088075964
 20
-1162.3730242240806
 30
0.0
 11
-606.03509413665256
 21
-1161.2891604674567
 31
0.0
  0
LINE
  5
7E
100
AcDbEntity
  8
一般
370
               5
  6
Continuous
 62
               7
100
AcDbLine
 10
-608.74107463738312
 20
-1163.995140968188
 30
0.0
 11
-607.65721088075964
 21
-1162.3730242240806
 31
0.0
  0
LINE
  5
7F
100
AcDbEntity
  8
一般
370
               5
  6
Continuous
 62
               7
100
AcDbLine
 10
-609.12167697482641
 20
-1165.9085581300135
 30
0.0
 11
-608.74107463738312
 21
-1163.995140968188
 31
0.0
  0
LINE
  5
80
100
AcDbEntity
  8
一般
370
               5
  6
Continuous
 62
               7
100
AcDbLine
 10
-608.74107463738255
 20
-1167.821975291839
 30
0.0
 11
-609.12167697482641
 21
-1165.9085581300135
 31
0.0
  0
LINE
  5
81
100
AcDbEntity
  8
一般
370
               5
  6
Continuous
 62
               7
100
AcDbLine
 10
-607.65721088075861
 20
-1169.4440920359461
 30
0.0
 11
-608.74107463738255
 21
-1167.821975291839
 31
0.0
  0
LINE
  5
82
100
AcDbEntity
  8
一般
370
               5
  6
Continuous
 62
               7
100
AcDbLine
 10
-606.0350941366512
 20
-1170.5279557925694
 30
0.0
 11
-607.65721088075861
 21
-1169.4440920359461
 31
0.0
  0
LINE
  5
83
100
AcDbEntity
  8
一般
370
               5
  6
Continuous
 62
               7
100
AcDbLine
 10
-604.12167697482573
 20
-1170.9085581300128
 30
0.0
 11
-606.0350941366512
 21
-1170.5279557925694
 31
0.0
  0
LINE
  5
84
100
AcDbEntity
  8
一般
370
               5
  6
Continuous
 62
               7
100
AcDbLine
 10
-602.20825981300027
 20
-1170.5279557925689
 30
0.0
 11
-604.12167697482573
 21
-1170.9085581300128
 31
0.0
  0
LINE
  5
85
100
AcDbEntity
  8
一般
370
               5
  6
Continuous
 62
               7
100
AcDbLine
 10
-600.58614306889319
 20
-1169.444092035945
 30
0.0
 11
-602.20825981300027
 21
-1170.5279557925689
 31
0.0
  0
LINE
  5
86
100
AcDbEntity
  8
一般
370
               5
  6
Continuous
 62
               7
100
AcDbLine
 10
-599.50227931226982
 20
-847.8219752918377
 30
0.0
 11
-600.58614306889331
 21
-849.44409203594512
 31
0.0
  0
LINE
  5
87
100
AcDbEntity
  8
一般
370
               5
  6
Continuous
 62
               7
100
AcDbLine
 10
-599.12167697482641
 20
-845.90855813001224
 30
0.0
 11
-599.50227931226982
 21
-847.8219752918377
 31
0.0
  0
LINE
  5
88
100
AcDbEntity
  8
一般
370
               5
  6
Continuous
 62
               7
100
AcDbLine
 10
-599.50227931227028
 20
-843.99514096818689
 30
0.0
 11
-599.12167697482641
 21
-845.90855813001224
 31
0.0
  0
LINE
  5
89
100
AcDbEntity
  8
一般
370
               5
  6
Continuous
 62
               7
100
AcDbLine
 10
-600.5861430688941
 20
-842.3730242240797
 30
0.0
 11
-599.50227931227028
 21
-843.99514096818689
 31
0.0
  0
LINE
  5
8A
100
AcDbEntity
  8
一般
370
               5
  6
Continuous
 62
               7
100
AcDbLine
 10
-602.20825981300152
 20
-841.28916046745621
 30
0.0
 11
-600.5861430688941
 21
-842.3730242240797
 31
0.0
  0
LINE
  5
8B
100
AcDbEntity
  8
一般
370
               5
  6
Continuous
 62
               7
100
AcDbLine
 10
-604.12167697482698
 20
-840.90855813001281
 30
0.0
 11
-602.20825981300152
 21
-841.28916046745621
 31
0.0
  0
LINE
  5
8C
100
AcDbEntity
  8
一般
370
               5
  6
Continuous
 62
               7
100
AcDbLine
 10
-606.03509413665233
 20
-841.28916046745667
 30
0.0
 11
-604.12167697482698
 21
-840.90855813001281
 31
0.0
  0
LINE
  5
8D
100
AcDbEntity
  8
一般
370
               5
  6
Continuous
 62
               7
100
AcDbLine
 10
-607.65721088075952
 20
-842.3730242240805
 30
0.0
 11
-606.03509413665233
 21
-841.28916046745667
 31
0.0
  0
LINE
  5
8E
100
AcDbEntity
  8
一般
370
               5
  6
Continuous
 62
               7
100
AcDbLine
 10
-608.74107463738301
 20
-843.99514096818791
 30
0.0
 11
-607.65721088075952
 21
-842.3730242240805
 31
0.0
  0
LINE
  5
8F
100
AcDbEntity
  8
一般
370
               5
  6
Continuous
 62
               7
100
AcDbLine
 10
-609.12167697482641
 20
-845.90855813001338
 30
0.0
 11
-608.74107463738301
 21
-843.99514096818791
 31
0.0
  0
LINE
  5
90
100
AcDbEntity
  8
一般
370
               5
  6
Continuous
 62
               7
100
AcDbLine
 10
-608.74107463738255
 20
-847.82197529183873
 30
0.0
 11
-609.12167697482641
 21
-845.90855813001338
 31
0.0
  0
LINE
  5
91
100
AcDbEntity
  8
一般
370
               5
  6
Continuous
 62
               7
100
AcDbLine
 10
-607.65721088075873
 20
-849.44409203594591
 30
0.0
 11
-608.74107463738255
 21
-847.82197529183873
 31
0.0
  0
LINE
  5
92
100
AcDbEntity
  8
一般
370
               5
  6
Continuous
 62
               7
100
AcDbLine
 10
-606.03509413665131
 20
-850.5279557925694
 30
0.0
 11
-607.65721088075873
 21
-849.44409203594591
 31
0.0
  0
LINE
  5
93
100
AcDbEntity
  8
一般
370
               5
  6
Continuous
 62
               7
100
AcDbLine
 10
-604.12167697482585
 20
-850.90855813001281
 30
0.0
 11
-606.03509413665131
 21
-850.5279557925694
 31
0.0
  0
LINE
  5
94
100
AcDbEntity
  8
一般
370
               5
  6
Continuous
 62
               7
100
AcDbLine
 10
-602.2082598130005
 20
-850.52795579256895
 30
0.0
 11
-604.12167697482585
 21
-850.90855813001281
 31
0.0
  0
LINE
  5
95
100
AcDbEntity
  8
一般
370
               5
  6
Continuous
 62
               7
100
AcDbLine
 10
-600.58614306889331
 20
-849.44409203594512
 30
0.0
 11
-602.2082598130005
 21
-850.52795579256895
 31
0.0
  0
LINE
  5
96
100
AcDbEntity
  8
一般
370
               5
  6
Continuous
 62
               7
100
AcDbLine
 10
-854.12167697482641
 20
-850.90855813001281
 30
0.0
 11
-854.12167697482641
 21
-780.90855813001281
 31
0.0
  0
LINE
  5
97
100
AcDbEntity
  8
一般
370
               5
  6
Continuous
 62
               7
100
AcDbLine
 10
-854.09758609892981
 20
-851.88991161656122
 30
0.0
 11
-854.12167697482641
 21
-850.90855813001281
 31
0.0
  0
LINE
  5
98
100
AcDbEntity
  8
一般
370
               5
  6
Continuous
 62
               7
100
AcDbLine
 10
-854.02537150827038
 20
-852.86890093660406
 30
0.0
 11
-854.09758609892981
 21
-851.88991161656122
 31
0.0
  0
LINE
  5
99
100
AcDbEntity
  8
一般
370
               5
  6
Continuous
 62
               7
100
AcDbLine
 10
-853.90520717412198
 20
-853.84316761912009
 30
0.0
 11
-854.02537150827038
 21
-852.86890093660406
 31
0.0
  0
LINE
  5
9A
100
AcDbEntity
  8
一般
370
               5
  6
Continuous
 62
               7
100
AcDbLine
 10
-853.73738258289097
 20
-854.81036457033542
 30
0.0
 11
-853.90520717412198
 21
-853.84316761912009
 31
0.0
  0
LINE
  5
9B
100
AcDbEntity
  8
一般
370
               5
  6
Continuous
 62
               7
100
AcDbLine
 10
-853.52230203871727
 20
-855.7681617280781
 30
0.0
 11
-853.73738258289097
 21
-854.81036457033542
 31
0.0
  0
LINE
  5
9C
100
AcDbEntity
  8
一般
370
               5
  6
Continuous
 62
               7
100
AcDbLine
 10
-853.26048368947056
 20
-856.7142516751021
 30
0.0
 11
-853.52230203871727
 21
-855.7681617280781
 31
0.0
  0
LINE
  5
9D
100
AcDbEntity
  8
一般
370
               5
  6
Continuous
 62
               7
100
AcDbLine
 10
-852.95255827848678
 20
-857.64635519785725
 30
0.0
 11
-853.26048368947056
 21
-856.7142516751021
 31
0.0
  0
LINE
  5
9E
100
AcDbEntity
  8
一般
370
               5
  6
Continuous
 62
               7
100
AcDbLine
 10
-852.59926762505211
 20
-858.56222677731455
 30
0.0
 11
-852.95255827848678
 21
-857.64635519785725
 31
0.0
  0
LINE
  5
9F
100
AcDbEntity
  8
一般
370
               5
  6
Continuous
 62
               7
100
AcDbLine
 10
-852.20146283729525
 20
-859.45965999861846
 30
0.0
 11
-852.59926762505211
 21
-858.56222677731455
 31
0.0
  0
LINE
  5
A0
100
AcDbEntity
  8
一般
370
               5
  6
Continuous
 62
               7
100
AcDbLine
 10
-851.76010226179346
 20
-860.33649286653281
 30
0.0
 11
-852.20146283729525
 21
-859.45965999861846
 31
0.0
  0
LINE
  5
A1
100
AcDbEntity
  8
一般
370
               5
  6
Continuous
 62
               7
100
AcDbLine
 10
-851.27624917483183
 20
-861.19061301387728
 30
0.0
 11
-851.76010226179346
 21
-860.33649286653281
 31
0.0
  0
LINE
  5
A2
100
AcDbEntity
  8
一般
370
               5
  6
Continuous
 62
               7
100
AcDbLine
 10
-850.7510692208773
 20
-862.01996279040486
 30
0.0
 11
-851.27624917483183
 21
-861.19061301387728
 31
0.0
  0
LINE
  5
A3
100
AcDbEntity
  8
一般
370
               5
  6
Continuous
 62
               7
100
AcDbLine
 10
-850.18582760443928
 20
-862.82254421986147
 30
0.0
 11
-850.7510692208773
 21
-862.01996279040486
 31
0.0
  0
LINE
  5
A4
100
AcDbEntity
  8
一般
370
               5
  6
Continuous
 62
               7
100
AcDbLine
 10
-849.58188604208112
 20
-863.5964238132857
 30
0.0
 11
-850.18582760443928
 21
-862.82254421986147
 31
0.0
  0
LINE
  5
A5
100
AcDbEntity
  8
一般
370
               5
  6
Continuous
 62
               7
100
AcDbLine
 10
-848.94069948192555
 20
-864.33973722695316
 30
0.0
 11
-849.58188604208112
 21
-863.5964238132857
 31
0.0
  0
LINE
  5
A6
100
AcDbEntity
  8
一般
370
               5
  6
Continuous
 62
               7
100
AcDbLine
 10
-848.26381259855737
 20
-865.05069375374376
 30
0.0
 11
-848.94069948192555
 21
-864.33973722695316
 31
0.0
  0
LINE
  5
A7
100
AcDbEntity
  8
一般
370
               5
  6
Continuous
 62
               7
100
AcDbLine
 10
-847.55285607176677
 20
-865.72758063711194
 30
0.0
 11
-848.26381259855737
 21
-865.05069375374376
 31
0.0
  0
LINE
  5
A8
100
AcDbEntity
  8
一般
370
               5
  6
Continuous
 62
               7
100
AcDbLine
 10
-846.8095426580993
 20
-866.36876719726752
 30
0.0
 11
-847.55285607176677
 21
-865.72758063711194
 31
0.0
  0
LINE
  5
A9
100
AcDbEntity
  8
一般
370
               5
  6
Continuous
 62
               7
100
AcDbLine
 10
-846.03566306467508
 20
-866.97270875962568
 30
0.0
 11
-846.8095426580993
 21
-866.36876719726752
 31
0.0
  0
LINE
  5
AA
100
AcDbEntity
  8
一般
370
               5
  6
Continuous
 62
               7
100
AcDbLine
 10
-845.23308163521847
 20
-867.53795037606369
 30
0.0
 11
-846.03566306467508
 21
-866.97270875962568
 31
0.0
  0
LINE
  5
AB
100
AcDbEntity
  8
一般
370
               5
  6
Continuous
 62
               7
100
AcDbLine
 10
-844.40373185869089
 20
-868.06313033001823
 30
0.0
 11
-845.23308163521847
 21
-867.53795037606369
 31
0.0
  0
LINE
  5
AC
100
AcDbEntity
  8
一般
370
               5
  6
Continuous
 62
               7
100
AcDbLine
 10
-843.54961171134642
 20
-868.54698341697986
 30
0.0
 11
-844.40373185869089
 21
-868.06313033001823
 31
0.0
  0
LINE
  5
AD
100
AcDbEntity
  8
一般
370
               5
  6
Continuous
 62
               7
100
AcDbLine
 10
-842.67277884343207
 20
-868.98834399248165
 30
0.0
 11
-843.54961171134642
 21
-868.54698341697986
 31
0.0
  0
LINE
  5
AE
100
AcDbEntity
  8
一般
370
               5
  6
Continuous
 62
               7
100
AcDbLine
 10
-841.77534562212816
 20
-869.3861487802385
 30
0.0
 11
-842.67277884343207
 21
-868.98834399248165
 31
0.0
  0
LINE
  5
AF
100
AcDbEntity
  8
一般
370
               5
  6
Continuous
 62
               7
100
AcDbLine
 10
-840.85947404267085
 20
-869.73943943367317
 30
0.0
 11
-841.77534562212816
 21
-869.3861487802385
 31
0.0
  0
LINE
  5
B0
100
AcDbEntity
  8
一般
370
               5
  6
Continuous
 62
               7
100
AcDbLine
 10
-839.92737051991571
 20
-870.04736484465695
 30
0.0
 11
-840.85947404267085
 21
-869.73943943367317
 31
0.0
  0
LINE
  5
B1
100
AcDbEntity
  8
一般
370
               5
  6
Continuous
 62
               7
100
AcDbLine
 10
-838.98128057289171
 20
-870.30918319390366
 30
0.0
 11
-839.92737051991571
 21
-870.04736484465695
 31
0.0
  0
LINE
  5
B2
100
AcDbEntity
  8
一般
370
               5
  6
Continuous
 62
               7
100
AcDbLine
 10
-838.02348341514903
 20
-870.52426373807737
 30
0.0
 11
-838.98128057289171
 21
-870.30918319390366
 31
0.0
  0
LINE
  5
B3
100
AcDbEntity
  8
一般
370
               5
  6
Continuous
 62
               7
100
AcDbLine
 10
-837.0562864639337
 20
-870.69208832930838
 30
0.0
 11
-838.02348341514903
 21
-870.52426373807737
 31
0.0
  0
LINE
  5
B4
100
AcDbEntity
  8
一般
370
               5
  6
Continuous
 62
               7
100
AcDbLine
 10
-836.08201978141767
 20
-870.81225266345677
 30
0.0
 11
-837.0562864639337
 21
-870.69208832930838
 31
0.0
  0
LINE
  5
B5
100
AcDbEntity
  8
一般
370
               5
  6
Continuous
 62
               7
100
AcDbLine
 10
-835.10303046137483
 20
-870.8844672541162
 30
0.0
 11
-836.08201978141767
 21
-870.81225266345677
 31
0.0
  0
LINE
  5
B6
100
AcDbEntity
  8
一般
370
               5
  6
Continuous
 62
               7
100
AcDbLine
 10
-834.12167697482641
 20
-870.90855813001281
 30
0.0
 11
-835.10303046137483
 21
-870.8844672541162
 31
0.0
  0
LINE
  5
B7
100
AcDbEntity
  8
一般
370
               5
  6
Continuous
 62
               7
100
AcDbLine
 10
-739.12167697482641
 20
-870.90855813001281
 30
0.0
 11
-834.12167697482641
 21
-870.90855813001281
 31
0.0
  0
LINE
  5
B8
100
AcDbEntity
  8
一般
370
               5
  6
Continuous
 62
               7
100
AcDbLine
 10
-738.140323488278
 20
-870.8844672541162
 30
0.0
 11
-739.12167697482641
 21
-870.90855813001281
 31
0.0
  0
LINE
  5
B9
100
AcDbEntity
  8
一般
370
               5
  6
Continuous
 62
               7
100
AcDbLine
 10
-737.16133416823516
 20
-870.81225266345677
 30
0.0
 11
-738.140323488278
 21
-870.8844672541162
 31
0.0
  0
LINE
  5
BA
100
AcDbEntity
  8
一般
370
               5
  6
Continuous
 62
               7
100
AcDbLine
 10
-736.18706748571913
 20
-870.69208832930838
 30
0.0
 11
-737.16133416823516
 21
-870.81225266345677
 31
0.0
  0
LINE
  5
BB
100
AcDbEntity
  8
一般
370
               5
  6
Continuous
 62
               7
100
AcDbLine
 10
-735.2198705345038
 20
-870.52426373807737
 30
0.0
 11
-736.18706748571913
 21
-870.69208832930838
 31
0.0
  0
LINE
  5
BC
100
AcDbEntity
  8
一般
370
               5
  6
Continuous
 62
               7
100
AcDbLine
 10
-734.26207337676112
 20
-870.30918319390366
 30
0.0
 11
-735.2198705345038
 21
-870.52426373807737
 31
0.0
  0
LINE
  5
BD
100
AcDbEntity
  8
一般
370
               5
  6
Continuous
 62
               7
100
AcDbLine
 10
-733.31598342973712
 20
-870.04736484465695
 30
0.0
 11
-734.26207337676112
 21
-870.30918319390366
 31
0.0
  0
LINE
  5
BE
100
AcDbEntity
  8
一般
370
               5
  6
Continuous
 62
               7
100
AcDbLine
 10
-732.38387990698197
 20
-869.73943943367317
 30
0.0
 11
-733.31598342973712
 21
-870.04736484465695
 31
0.0
  0
LINE
  5
BF
100
AcDbEntity
  8
一般
370
               5
  6
Continuous
 62
               7
100
AcDbLine
 10
-731.46800832752467
 20
-869.3861487802385
 30
0.0
 11
-732.38387990698197
 21
-869.73943943367317
 31
0.0
  0
LINE
  5
C0
100
AcDbEntity
  8
一般
370
               5
  6
Continuous
 62
               7
100
AcDbLine
 10
-730.57057510622076
 20
-868.98834399248165
 30
0.0
 11
-731.46800832752467
 21
-869.3861487802385
 31
0.0
  0
LINE
  5
C1
100
AcDbEntity
  8
一般
370
               5
  6
Continuous
 62
               7
100
AcDbLine
 10
-729.69374223830641
 20
-868.54698341697986
 30
0.0
 11
-730.57057510622076
 21
-868.98834399248165
 31
0.0
  0
LINE
  5
C2
100
AcDbEntity
  8
一般
370
               5
  6
Continuous
 62
               7
100
AcDbLine
 10
-728.83962209096194
 20
-868.06313033001823
 30
0.0
 11
-729.69374223830641
 21
-868.54698341697986
 31
0.0
  0
LINE
  5
C3
100
AcDbEntity
  8
一般
370
               5
  6
Continuous
 62
               7
100
AcDbLine
 10
-728.01027231443436
 20
-867.53795037606369
 30
0.0
 11
-728.83962209096194
 21
-868.06313033001823
 31
0.0
  0
LINE
  5
C4
100
AcDbEntity
  8
一般
370
               5
  6
Continuous
 62
               7
100
AcDbLine
 10
-727.20769088497775
 20
-866.97270875962568
 30
0.0
 11
-728.01027231443436
 21
-867.53795037606369
 31
0.0
  0
LINE
  5
C5
100
AcDbEntity
  8
一般
370
               5
  6
Continuous
 62
               7
100
AcDbLine
 10
-726.43381129155352
 20
-866.36876719726752
 30
0.0
 11
-727.20769088497775
 21
-866.97270875962568
 31
0.0
  0
LINE
  5
C6
100
AcDbEntity
  8
一般
370
               5
  6
Continuous
 62
               7
100
AcDbLine
 10
-725.69049787788606
 20
-865.72758063711194
 30
0.0
 11
-726.43381129155352
 21
-866.36876719726752
 31
0.0
  0
LINE
  5
C7
100
AcDbEntity
  8
一般
370
               5
  6
Continuous
 62
               7
100
AcDbLine
 10
-724.97954135109546
 20
-865.05069375374376
 30
0.0
 11
-725.69049787788606
 21
-865.72758063711194
 31
0.0
  0
LINE
  5
C8
100
AcDbEntity
  8
一般
370
               5
  6
Continuous
 62
               7
100
AcDbLine
 10
-724.30265446772728
 20
-864.33973722695316
 30
0.0
 11
-724.97954135109546
 21
-865.05069375374376
 31
0.0
  0
LINE
  5
C9
100
AcDbEntity
  8
一般
370
               5
  6
Continuous
 62
               7
100
AcDbLine
 10
-723.6614679075717
 20
-863.5964238132857
 30
0.0
 11
-724.30265446772728
 21
-864.33973722695316
 31
0.0
  0
LINE
  5
CA
100
AcDbEntity
  8
一般
370
               5
  6
Continuous
 62
               7
100
AcDbLine
 10
-723.05752634521355
 20
-862.82254421986147
 30
0.0
 11
-723.6614679075717
 21
-863.5964238132857
 31
0.0
  0
LINE
  5
CB
100
AcDbEntity
  8
一般
370
               5
  6
Continuous
 62
               7
100
AcDbLine
 10
-722.49228472877553
 20
-862.01996279040486
 30
0.0
 11
-723.05752634521355
 21
-862.82254421986147
 31
0.0
  0
LINE
  5
CC
100
AcDbEntity
  8
一般
370
               5
  6
Continuous
 62
               7
100
AcDbLine
 10
-721.967104774821
 20
-861.19061301387728
 30
0.0
 11
-722.49228472877553
 21
-862.01996279040486
 31
0.0
  0
LINE
  5
CD
100
AcDbEntity
  8
一般
370
               5
  6
Continuous
 62
               7
100
AcDbLine
 10
-721.48325168785937
 20
-860.33649286653281
 30
0.0
 11
-721.967104774821
 21
-861.19061301387728
 31
0.0
  0
LINE
  5
CE
100
AcDbEntity
  8
一般
370
               5
  6
Continuous
 62
               7
100
AcDbLine
 10
-721.04189111235758
 20
-859.45965999861846
 30
0.0
 11
-721.48325168785937
 21
-860.33649286653281
 31
0.0
  0
LINE
  5
CF
100
AcDbEntity
  8
一般
370
               5
  6
Continuous
 62
               7
100
AcDbLine
 10
-720.64408632460072
 20
-858.56222677731455
 30
0.0
 11
-721.04189111235758
 21
-859.45965999861846
 31
0.0
  0
LINE
  5
D0
100
AcDbEntity
  8
一般
370
               5
  6
Continuous
 62
               7
100
AcDbLine
 10
-720.29079567116605
 20
-857.64635519785725
 30
0.0
 11
-720.64408632460072
 21
-858.56222677731455
 31
0.0
  0
LINE
  5
D1
100
AcDbEntity
  8
一般
370
               5
  6
Continuous
 62
               7
100
AcDbLine
 10
-719.98287026018227
 20
-856.7142516751021
 30
0.0
 11
-720.29079567116605
 21
-857.64635519785725
 31
0.0
  0
LINE
  5
D2
100
AcDbEntity
  8
一般
370
               5
  6
Continuous
 62
               7
100
AcDbLine
 10
-719.72105191093556
 20
-855.7681617280781
 30
0.0
 11
-719.98287026018227
 21
-856.7142516751021
 31
0.0
  0
LINE
  5
D3
100
AcDbEntity
  8
一般
370
               5
  6
Continuous
 62
               7
100
AcDbLine
 10
-719.50597136676186
 20
-854.81036457033542
 30
0.0
 11
-719.72105191093556
 21
-855.7681617280781
 31
0.0
  0
LINE
  5
D4
100
AcDbEntity
  8
一般
370
               5
  6
Continuous
 62
               7
100
AcDbLine
 10
-719.33814677553084
 20
-853.84316761912009
 30
0.0
 11
-719.50597136676186
 21
-854.81036457033542
 31
0.0
  0
LINE
  5
D5
100
AcDbEntity
  8
一般
370
               5
  6
Continuous
 62
               7
100
AcDbLine
 10
-719.21798244138245
 20
-852.86890093660406
 30
0.0
 11
-719.33814677553084
 21
-853.84316761912009
 31
0.0
  0
LINE
  5
D6
100
AcDbEntity
  8
一般
370
               5
  6
Continuous
 62
               7
100
AcDbLine
 10
-719.14576785072302
 20
-851.88991161656122
 30
0.0
 11
-719.21798244138245
 21
-852.86890093660406
 31
0.0
  0
LINE
  5
D7
100
AcDbEntity
  8
一般
370
               5
  6
Continuous
 62
               7
100
AcDbLine
 10
-719.12167697482641
 20
-850.90855813001281
 30
0.0
 11
-719.14576785072302
 21
-851.88991161656122
 31
0.0
  0
LINE
  5
D8
100
AcDbEntity
  8
一般
370
               5
  6
Continuous
 62
               7
100
AcDbLine
 10
-719.12167697482641
 20
-780.90855813001281
 30
0.0
 11
-719.12167697482641
 21
-850.90855813001281
 31
0.0
  0
LINE
  5
D9
100
AcDbEntity
  8
一般
370
               5
  6
Continuous
 62
               7
100
AcDbLine
 10
-589.12167697482641
 20
-780.90855813001281
 30
0.0
 11
-719.12167697482641
 21
-780.90855813001281
 31
0.0
  0
LINE
  5
DA
100
AcDbEntity
  8
一般
370
               5
  6
Continuous
 62
               7
100
AcDbLine
 10
-589.12167697482641
 20
-1230.9085581300128
 30
0.0
 11
-589.12167697482641
 21
-780.90855813001281
 31
0.0
  0
LINE
  5
DB
100
AcDbEntity
  8
一般
370
               5
  6
Continuous
 62
               7
100
AcDbLine
 10
-1249.1216769748273
 20
-1230.9085581300128
 30
0.0
 11
-589.12167697482641
 21
-1230.9085581300128
 31
0.0
  0
LINE
  5
DC
100
AcDbEntity
  8
一般
370
               5
  6
Continuous
 62
               7
100
AcDbLine
 10
-1249.1216769748273
 20
-780.90855813001281
 30
0.0
 11
-1249.1216769748273
 21
-1230.9085581300128
 31
0.0
  0
LINE
  5
DD
100
AcDbEntity
  8
一般
370
               5
  6
Continuous
 62
               7
100
AcDbLine
 10
-944.12167697482641
 20
-780.90855813001281
 30
0.0
 11
-1249.1216769748273
 21
-780.90855813001281
 31
0.0
  0
LINE
  5
DE
100
AcDbEntity
  8
一般
370
               5
  6
Continuous
 62
               7
100
AcDbLine
 10
-944.12167697482641
 20
-960.90855813001281
 30
0.0
 11
-944.12167697482641
 21
-780.90855813001281
 31
0.0
  0
LINE
  5
DF
100
AcDbEntity
  8
一般
370
               5
  6
Continuous
 62
               7
100
AcDbLine
 10
-943.9531424083533
 20
-964.33915804154742
 30
0.0
 11
-944.12167697482641
 21
-960.90855813001281
 31
0.0
  0
LINE
  5
E0
100
AcDbEntity
  8
一般
370
               5
  6
Continuous
 62
               7
100
AcDbLine
 10
-943.44916178893948
 20
-967.73671940057727
 30
0.0
 11
-943.9531424083533
 21
-964.33915804154742
 31
0.0
  0
LINE
  5
E1
100
AcDbEntity
  8
一般
370
               5
  6
Continuous
 62
               7
100
AcDbLine
 10
-942.6145887254537
 20
-971.06852183391902
 30
0.0
 11
-943.44916178893948
 21
-967.73671940057727
 31
0.0
  0
LINE
  5
E2
100
AcDbEntity
  8
一般
370
               5
  6
Continuous
 62
               7
100
AcDbLine
 10
-941.45746061272143
 20
-974.30247826279094
 30
0.0
 11
-942.6145887254537
 21
-971.06852183391902
 31
0.0
  0
LINE
  5
E3
100
AcDbEntity
  8
一般
370
               5
  6
Continuous
 62
               7
100
AcDbLine
 10
-939.98892122701886
 20
-977.4074439189227
 30
0.0
 11
-941.45746061272143
 21
-974.30247826279094
 31
0.0
  0
LINE
  5
E4
100
AcDbEntity
  8
一般
370
               5
  6
Continuous
 62
               7
100
AcDbLine
 10
-938.22311340541546
 20
-980.3535162856989
 30
0.0
 11
-939.98892122701886
 21
-977.4074439189227
 31
0.0
  0
LINE
  5
E5
100
AcDbEntity
  8
一般
370
               5
  6
Continuous
 62
               7
100
AcDbLine
 10
-936.17704284252216
 20
-983.11232307574039
 30
0.0
 11
-938.22311340541546
 21
-980.3535162856989
 31
0.0
  0
LINE
  5
E6
100
AcDbEntity
  8
一般
370
               5
  6
Continuous
 62
               7
100
AcDbLine
 10
-933.87041431635555
 20
-985.65729547154194
 30
0.0
 11
-936.17704284252216
 21
-983.11232307574039
 31
0.0
  0
LINE
  5
E7
100
AcDbEntity
  8
一般
370
               5
  6
Continuous
 62
               7
100
AcDbLine
 10
-931.325441920554
 20
-987.96392399770855
 30
0.0
 11
-933.87041431635555
 21
-985.65729547154194
 31
0.0
  0
LINE
  5
E8
100
AcDbEntity
  8
一般
370
               5
  6
Continuous
 62
               7
100
AcDbLine
 10
-928.56663513051251
 20
-990.00999456060185
 30
0.0
 11
-931.325441920554
 21
-987.96392399770855
 31
0.0
  0
LINE
  5
E9
100
AcDbEntity
  8
一般
370
               5
  6
Continuous
 62
               7
100
AcDbLine
 10
-925.6205627637363
 20
-991.77580238220526
 30
0.0
 11
-928.56663513051251
 21
-990.00999456060185
 31
0.0
  0
LINE
  5
EA
100
AcDbEntity
  8
一般
370
               5
  6
Continuous
 62
               7
100
AcDbLine
 10
-922.51559710760455
 20
-993.24434176790783
 30
0.0
 11
-925.6205627637363
 21
-991.77580238220526
 31
0.0
  0
LINE
  5
EB
100
AcDbEntity
  8
一般
370
               5
  6
Continuous
 62
               7
100
AcDbLine
 10
-919.28164067873263
 20
-994.40146988064009
 30
0.0
 11
-922.51559710760455
 21
-993.24434176790783
 31
0.0
  0
LINE
  5
EC
100
AcDbEntity
  8
一般
370
               5
  6
Continuous
 62
               7
100
AcDbLine
 10
-915.94983824539088
 20
-995.23604294412587
 30
0.0
 11
-919.28164067873263
 21
-994.40146988064009
 31
0.0
  0
LINE
  5
ED
100
AcDbEntity
  8
一般
370
               5
  6
Continuous
 62
               7
100
AcDbLine
 10
-912.55227688636103
 20
-995.74002356353969
 30
0.0
 11
-915.94983824539088
 21
-995.23604294412587
 31
0.0
  0
LINE
  5
EE
100
AcDbEntity
  8
一般
370
               5
  6
Continuous
 62
               7
100
AcDbLine
 10
-909.12167697482641
 20
-995.90855813001281
 30
0.0
 11
-912.55227688636103
 21
-995.74002356353969
 31
0.0
  0
LINE
  5
EF
100
AcDbEntity
  8
一般
370
               5
  6
Continuous
 62
               7
100
AcDbLine
 10
-905.6910770632918
 20
-995.74002356353969
 30
0.0
 11
-909.12167697482641
 21
-995.90855813001281
 31
0.0
  0
LINE
  5
F0
100
AcDbEntity
  8
一般
370
               5
  6
Continuous
 62
               7
100
AcDbLine
 10
-902.29351570426195
 20
-995.23604294412587
 30
0.0
 11
-905.6910770632918
 21
-995.74002356353969
 31
0.0
  0
LINE
  5
F1
100
AcDbEntity
  8
一般
370
               5
  6
Continuous
 62
               7
100
AcDbLine
 10
-898.9617132709202
 20
-994.40146988064009
 30
0.0
 11
-902.29351570426195
 21
-995.23604294412587
 31
0.0
  0
LINE
  5
F2
100
AcDbEntity
  8
一般
370
               5
  6
Continuous
 62
               7
100
AcDbLine
 10
-895.72775684204828
 20
-993.24434176790783
 30
0.0
 11
-898.9617132709202
 21
-994.40146988064009
 31
0.0
  0
LINE
  5
F3
100
AcDbEntity
  8
一般
370
               5
  6
Continuous
 62
               7
100
AcDbLine
 10
-892.62279118591653
 20
-991.77580238220526
 30
0.0
 11
-895.72775684204828
 21
-993.24434176790783
 31
0.0
  0
LINE
  5
F4
100
AcDbEntity
  8
一般
370
               5
  6
Continuous
 62
               7
100
AcDbLine
 10
-889.67671881914032
 20
-990.00999456060185
 30
0.0
 11
-892.62279118591653
 21
-991.77580238220526
 31
0.0
  0
LINE
  5
F5
100
AcDbEntity
  8
一般
370
               5
  6
Continuous
 62
               7
100
AcDbLine
 10
-886.91791202909883
 20
-987.96392399770855
 30
0.0
 11
-889.67671881914032
 21
-990.00999456060185
 31
0.0
  0
LINE
  5
F6
100
AcDbEntity
  8
一般
370
               5
  6
Continuous
 62
               7
100
AcDbLine
 10
-884.37293963329728
 20
-985.65729547154194
 30
0.0
 11
-886.91791202909883
 21
-987.96392399770855
 31
0.0
  0
LINE
  5
F7
100
AcDbEntity
  8
一般
370
               5
  6
Continuous
 62
               7
100
AcDbLine
 10
-882.06631110713067
 20
-983.11232307574039
 30
0.0
 11
-884.37293963329728
 21
-985.65729547154194
 31
0.0
  0
LINE
  5
F8
100
AcDbEntity
  8
一般
370
               5
  6
Continuous
 62
               7
100
AcDbLine
 10
-880.02024054423737
 20
-980.3535162856989
 30
0.0
 11
-882.06631110713067
 21
-983.11232307574039
 31
0.0
  0
LINE
  5
F9
100
AcDbEntity
  8
一般
370
               5
  6
Continuous
 62
               7
100
AcDbLine
 10
-878.25443272263396
 20
-977.4074439189227
 30
0.0
 11
-880.02024054423737
 21
-980.3535162856989
 31
0.0
  0
LINE
  5
FA
100
AcDbEntity
  8
一般
370
               5
  6
Continuous
 62
               7
100
AcDbLine
 10
-876.78589333693139
 20
-974.30247826279094
 30
0.0
 11
-878.25443272263396
 21
-977.4074439189227
 31
0.0
  0
LINE
  5
FB
100
AcDbEntity
  8
一般
370
               5
  6
Continuous
 62
               7
100
AcDbLine
 10
-875.62876522419913
 20
-971.06852183391902
 30
0.0
 11
-876.78589333693139
 21
-974.30247826279094
 31
0.0
  0
LINE
  5
FC
100
AcDbEntity
  8
一般
370
               5
  6
Continuous
 62
               7
100
AcDbLine
 10
-874.79419216071335
 20
-967.73671940057727
 30
0.0
 11
-875.62876522419913
 21
-971.06852183391902
 31
0.0
  0
LINE
  5
FD
100
AcDbEntity
  8
一般
370
               5
  6
Continuous
 62
               7
100
AcDbLine
 10
-874.29021154129953
 20
-964.33915804154742
 30
0.0
 11
-874.79419216071335
 21
-967.73671940057727
 31
0.0
  0
LINE
  5
FE
100
AcDbEntity
  8
一般
370
               5
  6
Continuous
 62
               7
100
AcDbLine
 10
-874.12167697482641
 20
-960.90855813001281
 30
0.0
 11
-874.29021154129953
 21
-964.33915804154742
 31
0.0
  0
LINE
  5
FF
100
AcDbEntity
  8
一般
370
               5
  6
Continuous
 62
               7
100
AcDbLine
 10
-874.12167697482641
 20
-780.90855813001281
 30
0.0
 11
-874.12167697482641
 21
-960.90855813001281
 31
0.0
  0
LINE
  5
100
100
AcDbEntity
  8
一般
370
               5
  6
Continuous
 62
               7
100
AcDbLine
 10
-854.12167697482641
 20
-780.90855813001281
 30
0.0
 11
-874.12167697482641
 21
-780.90855813001281
 31
0.0
  0
LINE
  5
101
100
AcDbEntity
  8
一般
370
               5
  6
Continuous
 62
               7
100
AcDbLine
 10
-866.62167697482641
 20
-960.90855813001281
 30
0.0
 11
-866.62167697482641
 21
-780.90855813001281
 31
0.0
  0
LINE
  5
102
100
AcDbEntity
  8
一般
370
               5
  6
Continuous
 62
               7
100
AcDbLine
 10
-866.82632609125801
 20
-965.0742865940191
 30
0.0
 11
-866.62167697482641
 21
-960.90855813001281
 31
0.0
  0
LINE
  5
103
100
AcDbEntity
  8
一般
370
               5
  6
Continuous
 62
               7
100
AcDbLine
 10
-867.4383025576891
 20
-969.19989681569825
 30
0.0
 11
-866.82632609125801
 21
-965.0742865940191
 31
0.0
  0
LINE
  5
104
100
AcDbEntity
  8
一般
370
               5
  6
Continuous
 62
               7
100
AcDbLine
 10
-868.45171270620756
 20
-973.24565691332748
 30
0.0
 11
-867.4383025576891
 21
-969.19989681569825
 31
0.0
  0
LINE
  5
105
100
AcDbEntity
  8
一般
370
               5
  6
Continuous
 62
               7
100
AcDbLine
 10
-869.85679684309673
 20
-977.17260400552914
 30
0.0
 11
-868.45171270620756
 21
-973.24565691332748
 31
0.0
  0
LINE
  5
106
100
AcDbEntity
  8
一般
370
               5
  6
Continuous
 62
               7
100
AcDbLine
 10
-871.64002324002126
 20
-980.9429194451177
 30
0.0
 11
-869.85679684309673
 21
-977.17260400552914
 31
0.0
  0
LINE
  5
107
100
AcDbEntity
  8
一般
370
               5
  6
Continuous
 62
               7
100
AcDbLine
 10
-873.78421845196829
 20
-984.52029303334587
 30
0.0
 11
-871.64002324002126
 21
-980.9429194451177
 31
0.0
  0
LINE
  5
108
100
AcDbEntity
  8
一般
370
               5
  6
Continuous
 62
               7
100
AcDbLine
 10
-876.2687327069101
 20
-987.87027270696774
 30
0.0
 11
-873.78421845196829
 21
-984.52029303334587
 31
0.0
  0
LINE
  5
109
100
AcDbEntity
  8
一般
370
               5
  6
Continuous
 62
               7
100
AcDbLine
 10
-879.06963877439819
 20
-990.96059633044104
 30
0.0
 11
-876.2687327069101
 21
-987.87027270696774
 31
0.0
  0
LINE
  5
10A
100
AcDbEntity
  8
一般
370
               5
  6
Continuous
 62
               7
100
AcDbLine
 10
-882.15996239787148
 20
-993.76150239792912
 30
0.0
 11
-879.06963877439819
 21
-990.96059633044104
 31
0.0
  0
LINE
  5
10B
100
AcDbEntity
  8
一般
370
               5
  6
Continuous
 62
               7
100
AcDbLine
 10
-885.50994207149336
 20
-996.24601665287094
 30
0.0
 11
-882.15996239787148
 21
-993.76150239792912
 31
0.0
  0
LINE
  5
10C
100
AcDbEntity
  8
一般
370
               5
  6
Continuous
 62
               7
100
AcDbLine
 10
-889.08731565972153
 20
-998.39021186481796
 30
0.0
 11
-885.50994207149336
 21
-996.24601665287094
 31
0.0
  0
LINE
  5
10D
100
AcDbEntity
  8
一般
370
               5
  6
Continuous
 62
               7
100
AcDbLine
 10
-892.85763109931008
 20
-1000.1734382617425
 30
0.0
 11
-889.08731565972153
 21
-998.39021186481796
 31
0.0
  0
LINE
  5
10E
100
AcDbEntity
  8
一般
370
               5
  6
Continuous
 62
               7
100
AcDbLine
 10
-896.78457819151174
 20
-1001.5785223986317
 30
0.0
 11
-892.85763109931008
 21
-1000.1734382617425
 31
0.0
  0
LINE
  5
10F
100
AcDbEntity
  8
一般
370
               5
  6
Continuous
 62
               7
100
AcDbLine
 10
-900.83033828914097
 20
-1002.5919325471501
 30
0.0
 11
-896.78457819151174
 21
-1001.5785223986317
 31
0.0
  0
LINE
  5
110
100
AcDbEntity
  8
一般
370
               5
  6
Continuous
 62
               7
100
AcDbLine
 10
-904.95594851082012
 20
-1003.2039090135812
 30
0.0
 11
-900.83033828914097
 21
-1002.5919325471501
 31
0.0
  0
LINE
  5
111
100
AcDbEntity
  8
一般
370
               5
  6
Continuous
 62
               7
100
AcDbLine
 10
-909.12167697482641
 20
-1003.4085581300128
 30
0.0
 11
-904.95594851082012
 21
-1003.2039090135812
 31
0.0
  0
LINE
  5
112
100
AcDbEntity
  8
一般
370
               5
  6
Continuous
 62
               7
100
AcDbLine
 10
-913.28740543883271
 20
-1003.2039090135812
 30
0.0
 11
-909.12167697482641
 21
-1003.4085581300128
 31
0.0
  0
LINE
  5
113
100
AcDbEntity
  8
一般
370
               5
  6
Continuous
 62
               7
100
AcDbLine
 10
-917.41301566051186
 20
-1002.5919325471501
 30
0.0
 11
-913.28740543883271
 21
-1003.2039090135812
 31
0.0
  0
LINE
  5
114
100
AcDbEntity
  8
一般
370
               5
  6
Continuous
 62
               7
100
AcDbLine
 10
-921.45877575814109
 20
-1001.5785223986317
 30
0.0
 11
-917.41301566051186
 21
-1002.5919325471501
 31
0.0
  0
LINE
  5
115
100
AcDbEntity
  8
一般
370
               5
  6
Continuous
 62
               7
100
AcDbLine
 10
-925.38572285034275
 20
-1000.1734382617425
 30
0.0
 11
-921.45877575814109
 21
-1001.5785223986317
 31
0.0
  0
LINE
  5
116
100
AcDbEntity
  8
一般
370
               5
  6
Continuous
 62
               7
100
AcDbLine
 10
-929.1560382899313
 20
-998.39021186481796
 30
0.0
 11
-925.38572285034275
 21
-1000.1734382617425
 31
0.0
  0
LINE
  5
117
100
AcDbEntity
  8
一般
370
               5
  6
Continuous
 62
               7
100
AcDbLine
 10
-932.73341187815947
 20
-996.24601665287094
 30
0.0
 11
-929.1560382899313
 21
-998.39021186481796
 31
0.0
  0
LINE
  5
118
100
AcDbEntity
  8
一般
370
               5
  6
Continuous
 62
               7
100
AcDbLine
 10
-936.08339155178135
 20
-993.76150239792912
 30
0.0
 11
-932.73341187815947
 21
-996.24601665287094
 31
0.0
  0
LINE
  5
119
100
AcDbEntity
  8
一般
370
               5
  6
Continuous
 62
               7
100
AcDbLine
 10
-939.17371517525464
 20
-990.96059633044104
 30
0.0
 11
-936.08339155178135
 21
-993.76150239792912
 31
0.0
  0
LINE
  5
11A
100
AcDbEntity
  8
一般
370
               5
  6
Continuous
 62
               7
100
AcDbLine
 10
-941.97462124274273
 20
-987.87027270696774
 30
0.0
 11
-939.17371517525464
 21
-990.96059633044104
 31
0.0
  0
LINE
  5
11B
100
AcDbEntity
  8
一般
370
               5
  6
Continuous
 62
               7
100
AcDbLine
 10
-944.45913549768454
 20
-984.52029303334587
 30
0.0
 11
-941.97462124274273
 21
-987.87027270696774
 31
0.0
  0
LINE
  5
11C
100
AcDbEntity
  8
一般
370
               5
  6
Continuous
 62
               7
100
AcDbLine
 10
-946.60333070963156
 20
-980.9429194451177
 30
0.0
 11
-944.45913549768454
 21
-984.52029303334587
 31
0.0
  0
LINE
  5
11D
100
AcDbEntity
  8
一般
370
               5
  6
Continuous
 62
               7
100
AcDbLine
 10
-948.3865571065561
 20
-977.17260400552914
 30
0.0
 11
-946.60333070963156
 21
-980.9429194451177
 31
0.0
  0
LINE
  5
11E
100
AcDbEntity
  8
一般
370
               5
  6
Continuous
 62
               7
100
AcDbLine
 10
-949.79164124344527
 20
-973.24565691332748
 30
0.0
 11
-948.3865571065561
 21
-977.17260400552914
 31
0.0
  0
LINE
  5
11F
100
AcDbEntity
  8
一般
370
               5
  6
Continuous
 62
               7
100
AcDbLine
 10
-950.80505139196373
 20
-969.19989681569825
 30
0.0
 11
-949.79164124344527
 21
-973.24565691332748
 31
0.0
  0
LINE
  5
120
100
AcDbEntity
  8
一般
370
               5
  6
Continuous
 62
               7
100
AcDbLine
 10
-951.41702785839482
 20
-965.0742865940191
 30
0.0
 11
-950.80505139196373
 21
-969.19989681569825
 31
0.0
  0
LINE
  5
121
100
AcDbEntity
  8
一般
370
               5
  6
Continuous
 62
               7
100
AcDbLine
 10
-951.62167697482641
 20
-960.90855813001281
 30
0.0
 11
-951.41702785839482
 21
-965.0742865940191
 31
0.0
  0
LINE
  5
122
100
AcDbEntity
  8
一般
370
               5
  6
Continuous
 62
               7
100
AcDbLine
 10
-951.62167697482641
 20
-780.90855813001281
 30
0.0
 11
-951.62167697482641
 21
-960.90855813001281
 31
0.0
  0
LINE
  5
123
100
AcDbEntity
  8
一般
370
               5
  6
Continuous
 62
               7
100
AcDbLine
 10
-944.12167697482641
 20
-780.90855813001281
 30
0.0
 11
-951.62167697482641
 21
-780.90855813001281
 31
0.0
  0
LINE
  5
124
100
AcDbEntity
  8
一般
370
               5
  6
Continuous
 62
               7
100
AcDbLine
 10
-944.12167697482641
 20
-960.90855813001281
 30
0.0
 11
-944.12167697482641
 21
-780.90855813001281
 31
0.0
  0
LINE
  5
125
100
AcDbEntity
  8
一般
370
               5
  6
Continuous
 62
               7
100
AcDbLine
 10
-943.9531424083533
 20
-964.33915804154742
 30
0.0
 11
-944.12167697482641
 21
-960.90855813001281
 31
0.0
  0
LINE
  5
126
100
AcDbEntity
  8
一般
370
               5
  6
Continuous
 62
               7
100
AcDbLine
 10
-943.44916178893948
 20
-967.73671940057727
 30
0.0
 11
-943.9531424083533
 21
-964.33915804154742
 31
0.0
  0
LINE
  5
127
100
AcDbEntity
  8
一般
370
               5
  6
Continuous
 62
               7
100
AcDbLine
 10
-942.6145887254537
 20
-971.06852183391902
 30
0.0
 11
-943.44916178893948
 21
-967.73671940057727
 31
0.0
  0
LINE
  5
128
100
AcDbEntity
  8
一般
370
               5
  6
Continuous
 62
               7
100
AcDbLine
 10
-941.45746061272143
 20
-974.30247826279094
 30
0.0
 11
-942.6145887254537
 21
-971.06852183391902
 31
0.0
  0
LINE
  5
129
100
AcDbEntity
  8
一般
370
               5
  6
Continuous
 62
               7
100
AcDbLine
 10
-939.98892122701886
 20
-977.4074439189227
 30
0.0
 11
-941.45746061272143
 21
-974.30247826279094
 31
0.0
  0
LINE
  5
12A
100
AcDbEntity
  8
一般
370
               5
  6
Continuous
 62
               7
100
AcDbLine
 10
-938.22311340541546
 20
-980.3535162856989
 30
0.0
 11
-939.98892122701886
 21
-977.4074439189227
 31
0.0
  0
LINE
  5
12B
100
AcDbEntity
  8
一般
370
               5
  6
Continuous
 62
               7
100
AcDbLine
 10
-936.17704284252216
 20
-983.11232307574039
 30
0.0
 11
-938.22311340541546
 21
-980.3535162856989
 31
0.0
  0
LINE
  5
12C
100
AcDbEntity
  8
一般
370
               5
  6
Continuous
 62
               7
100
AcDbLine
 10
-933.87041431635555
 20
-985.65729547154194
 30
0.0
 11
-936.17704284252216
 21
-983.11232307574039
 31
0.0
  0
LINE
  5
12D
100
AcDbEntity
  8
一般
370
               5
  6
Continuous
 62
               7
100
AcDbLine
 10
-931.325441920554
 20
-987.96392399770855
 30
0.0
 11
-933.87041431635555
 21
-985.65729547154194
 31
0.0
  0
LINE
  5
12E
100
AcDbEntity
  8
一般
370
               5
  6
Continuous
 62
               7
100
AcDbLine
 10
-928.56663513051251
 20
-990.00999456060185
 30
0.0
 11
-931.325441920554
 21
-987.96392399770855
 31
0.0
  0
LINE
  5
12F
100
AcDbEntity
  8
一般
370
               5
  6
Continuous
 62
               7
100
AcDbLine
 10
-925.6205627637363
 20
-991.77580238220526
 30
0.0
 11
-928.56663513051251
 21
-990.00999456060185
 31
0.0
  0
LINE
  5
130
100
AcDbEntity
  8
一般
370
               5
  6
Continuous
 62
               7
100
AcDbLine
 10
-922.51559710760455
 20
-993.24434176790783
 30
0.0
 11
-925.6205627637363
 21
-991.77580238220526
 31
0.0
  0
LINE
  5
131
100
AcDbEntity
  8
一般
370
               5
  6
Continuous
 62
               7
100
AcDbLine
 10
-919.28164067873263
 20
-994.40146988064009
 30
0.0
 11
-922.51559710760455
 21
-993.24434176790783
 31
0.0
  0
LINE
  5
132
100
AcDbEntity
  8
一般
370
               5
  6
Continuous
 62
               7
100
AcDbLine
 10
-915.94983824539088
 20
-995.23604294412587
 30
0.0
 11
-919.28164067873263
 21
-994.40146988064009
 31
0.0
  0
LINE
  5
133
100
AcDbEntity
  8
一般
370
               5
  6
Continuous
 62
               7
100
AcDbLine
 10
-912.55227688636103
 20
-995.74002356353969
 30
0.0
 11
-915.94983824539088
 21
-995.23604294412587
 31
0.0
  0
LINE
  5
134
100
AcDbEntity
  8
一般
370
               5
  6
Continuous
 62
               7
100
AcDbLine
 10
-909.12167697482641
 20
-995.90855813001281
 30
0.0
 11
-912.55227688636103
 21
-995.74002356353969
 31
0.0
  0
LINE
  5
135
100
AcDbEntity
  8
一般
370
               5
  6
Continuous
 62
               7
100
AcDbLine
 10
-905.6910770632918
 20
-995.74002356353969
 30
0.0
 11
-909.12167697482641
 21
-995.90855813001281
 31
0.0
  0
LINE
  5
136
100
AcDbEntity
  8
一般
370
               5
  6
Continuous
 62
               7
100
AcDbLine
 10
-902.29351570426195
 20
-995.23604294412587
 30
0.0
 11
-905.6910770632918
 21
-995.74002356353969
 31
0.0
  0
LINE
  5
137
100
AcDbEntity
  8
一般
370
               5
  6
Continuous
 62
               7
100
AcDbLine
 10
-898.9617132709202
 20
-994.40146988064009
 30
0.0
 11
-902.29351570426195
 21
-995.23604294412587
 31
0.0
  0
LINE
  5
138
100
AcDbEntity
  8
一般
370
               5
  6
Continuous
 62
               7
100
AcDbLine
 10
-895.72775684204828
 20
-993.24434176790783
 30
0.0
 11
-898.9617132709202
 21
-994.40146988064009
 31
0.0
  0
LINE
  5
139
100
AcDbEntity
  8
一般
370
               5
  6
Continuous
 62
               7
100
AcDbLine
 10
-892.62279118591653
 20
-991.77580238220526
 30
0.0
 11
-895.72775684204828
 21
-993.24434176790783
 31
0.0
  0
LINE
  5
13A
100
AcDbEntity
  8
一般
370
               5
  6
Continuous
 62
               7
100
AcDbLine
 10
-889.67671881914032
 20
-990.00999456060185
 30
0.0
 11
-892.62279118591653
 21
-991.77580238220526
 31
0.0
  0
LINE
  5
13B
100
AcDbEntity
  8
一般
370
               5
  6
Continuous
 62
               7
100
AcDbLine
 10
-886.91791202909883
 20
-987.96392399770855
 30
0.0
 11
-889.67671881914032
 21
-990.00999456060185
 31
0.0
  0
LINE
  5
13C
100
AcDbEntity
  8
一般
370
               5
  6
Continuous
 62
               7
100
AcDbLine
 10
-884.37293963329728
 20
-985.65729547154194
 30
0.0
 11
-886.91791202909883
 21
-987.96392399770855
 31
0.0
  0
LINE
  5
13D
100
AcDbEntity
  8
一般
370
               5
  6
Continuous
 62
               7
100
AcDbLine
 10
-882.06631110713067
 20
-983.11232307574039
 30
0.0
 11
-884.37293963329728
 21
-985.65729547154194
 31
0.0
  0
LINE
  5
13E
100
AcDbEntity
  8
一般
370
               5
  6
Continuous
 62
               7
100
AcDbLine
 10
-880.02024054423737
 20
-980.3535162856989
 30
0.0
 11
-882.06631110713067
 21
-983.11232307574039
 31
0.0
  0
LINE
  5
13F
100
AcDbEntity
  8
一般
370
               5
  6
Continuous
 62
               7
100
AcDbLine
 10
-878.25443272263396
 20
-977.4074439189227
 30
0.0
 11
-880.02024054423737
 21
-980.3535162856989
 31
0.0
  0
LINE
  5
140
100
AcDbEntity
  8
一般
370
               5
  6
Continuous
 62
               7
100
AcDbLine
 10
-876.78589333693139
 20
-974.30247826279094
 30
0.0
 11
-878.25443272263396
 21
-977.4074439189227
 31
0.0
  0
LINE
  5
141
100
AcDbEntity
  8
一般
370
               5
  6
Continuous
 62
               7
100
AcDbLine
 10
-875.62876522419913
 20
-971.06852183391902
 30
0.0
 11
-876.78589333693139
 21
-974.30247826279094
 31
0.0
  0
LINE
  5
142
100
AcDbEntity
  8
一般
370
               5
  6
Continuous
 62
               7
100
AcDbLine
 10
-874.79419216071335
 20
-967.73671940057727
 30
0.0
 11
-875.62876522419913
 21
-971.06852183391902
 31
0.0
  0
LINE
  5
143
100
AcDbEntity
  8
一般
370
               5
  6
Continuous
 62
               7
100
AcDbLine
 10
-874.29021154129953
 20
-964.33915804154742
 30
0.0
 11
-874.79419216071335
 21
-967.73671940057727
 31
0.0
  0
LINE
  5
144
100
AcDbEntity
  8
一般
370
               5
  6
Continuous
 62
               7
100
AcDbLine
 10
-874.12167697482641
 20
-960.90855813001281
 30
0.0
 11
-874.29021154129953
 21
-964.33915804154742
 31
0.0
  0
LINE
  5
145
100
AcDbEntity
  8
一般
370
               5
  6
Continuous
 62
               7
100
AcDbLine
 10
-874.12167697482641
 20
-780.90855813001281
 30
0.0
 11
-874.12167697482641
 21
-960.90855813001281
 31
0.0
  0
LINE
  5
146
100
AcDbEntity
  8
一般
370
               5
  6
Continuous
 62
               7
100
AcDbLine
 10
-866.62167697482641
 20
-780.90855813001281
 30
0.0
 11
-874.12167697482641
 21
-780.90855813001281
 31
0.0
  0
LINE
  5
147
100
AcDbEntity
  8
一般
370
               5
  6
Continuous
 62
               7
100
AcDbLine
 10
-844.64547136486635
 20
-876.31524527407316
 30
0.0
 11
-847.0850872375413
 21
-875.16139289959256
 31
0.0
  0
LINE
  5
148
100
AcDbEntity
  8
一般
370
               5
  6
Continuous
 62
               7
100
AcDbLine
 10
-842.10450559932417
 20
-877.22441736264852
 30
0.0
 11
-844.64547136486635
 21
-876.31524527407316
 31
0.0
  0
LINE
  5
149
100
AcDbEntity
  8
一般
370
               5
  6
Continuous
 62
               7
100
AcDbLine
 10
-839.4866608302699
 20
-877.88015334110162
 30
0.0
 11
-842.10450559932417
 21
-877.22441736264852
 31
0.0
  0
LINE
  5
14A
100
AcDbEntity
  8
一般
370
               5
  6
Continuous
 62
               7
100
AcDbLine
 10
-836.81714833388935
 20
-878.27613811349818
 30
0.0
 11
-839.4866608302699
 21
-877.88015334110162
 31
0.0
  0
LINE
  5
14B
100
AcDbEntity
  8
一般
370
               5
  6
Continuous
 62
               7
100
AcDbLine
 10
-834.12167697482641
 20
-878.40855813001281
 30
0.0
 11
-836.81714833388935
 21
-878.27613811349818
 31
0.0
  0
LINE
  5
14C
100
AcDbEntity
  8
一般
370
               5
  6
Continuous
 62
               7
100
AcDbLine
 10
-739.12167697482641
 20
-878.40855813001281
 30
0.0
 11
-834.12167697482641
 21
-878.40855813001281
 31
0.0
  0
LINE
  5
14D
100
AcDbEntity
  8
一般
370
               5
  6
Continuous
 62
               7
100
AcDbLine
 10
-736.42620561576348
 20
-878.27613811349818
 30
0.0
 11
-739.12167697482641
 21
-878.40855813001281
 31
0.0
  0
LINE
  5
14E
100
AcDbEntity
  8
一般
370
               5
  6
Continuous
 62
               7
100
AcDbLine
 10
-733.75669311938293
 20
-877.88015334110162
 30
0.0
 11
-736.42620561576348
 21
-878.27613811349818
 31
0.0
  0
LINE
  5
14F
100
AcDbEntity
  8
一般
370
               5
  6
Continuous
 62
               7
100
AcDbLine
 10
-731.13884835032866
 20
-877.22441736264852
 30
0.0
 11
-733.75669311938293
 21
-877.88015334110162
 31
0.0
  0
LINE
  5
150
100
AcDbEntity
  8
一般
370
               5
  6
Continuous
 62
               7
100
AcDbLine
 10
-728.59788258478648
 20
-876.31524527407316
 30
0.0
 11
-731.13884835032866
 21
-877.22441736264852
 31
0.0
  0
LINE
  5
151
100
AcDbEntity
  8
一般
370
               5
  6
Continuous
 62
               7
100
AcDbLine
 10
-726.15826671211153
 20
-875.16139289959256
 30
0.0
 11
-728.59788258478648
 21
-876.31524527407316
 31
0.0
  0
LINE
  5
152
100
AcDbEntity
  8
一般
370
               5
  6
Continuous
 62
               7
100
AcDbLine
 10
-723.8434955667874
 20
-873.77397246833277
 30
0.0
 11
-726.15826671211153
 21
-875.16139289959256
 31
0.0
  0
LINE
  5
153
100
AcDbEntity
  8
一般
370
               5
  6
Continuous
 62
               7
100
AcDbLine
 10
-721.67586166032618
 20
-872.16634559748809
 30
0.0
 11
-723.8434955667874
 21
-873.77397246833277
 31
0.0
  0
LINE
  5
154
100
AcDbEntity
  8
一般
370
               5
  6
Continuous
 62
               7
100
AcDbLine
 10
-719.67624049219637
 20
-870.35399461264285
 30
0.0
 11
-721.67586166032618
 21
-872.16634559748809
 31
0.0
  0
LINE
  5
155
100
AcDbEntity
  8
一般
370
               5
  6
Continuous
 62
               7
100
AcDbLine
 10
-717.86388950735113
 20
-868.35437344451304
 30
0.0
 11
-719.67624049219637
 21
-870.35399461264285
 31
0.0
  0
LINE
  5
156
100
AcDbEntity
  8
一般
370
               5
  6
Continuous
 62
               7
100
AcDbLine
 10
-716.25626263650645
 20
-866.18673953805182
 30
0.0
 11
-717.86388950735113
 21
-868.35437344451304
 31
0.0
  0
LINE
  5
157
100
AcDbEntity
  8
一般
370
               5
  6
Continuous
 62
               7
100
AcDbLine
 10
-714.86884220524666
 20
-863.87196839272769
 30
0.0
 11
-716.25626263650645
 21
-866.18673953805182
 31
0.0
  0
LINE
  5
158
100
AcDbEntity
  8
一般
370
               5
  6
Continuous
 62
               7
100
AcDbLine
 10
-713.71498983076606
 20
-861.43235252005275
 30
0.0
 11
-714.86884220524666
 21
-863.87196839272769
 31
0.0
  0
LINE
  5
159
100
AcDbEntity
  8
一般
370
               5
  6
Continuous
 62
               7
100
AcDbLine
 10
-712.8058177421907
 20
-858.89138675451056
 30
0.0
 11
-713.71498983076606
 21
-861.43235252005275
 31
0.0
  0
LINE
  5
15A
100
AcDbEntity
  8
一般
370
               5
  6
Continuous
 62
               7
100
AcDbLine
 10
-712.1500817637376
 20
-856.27354198545629
 30
0.0
 11
-712.8058177421907
 21
-858.89138675451056
 31
0.0
  0
LINE
  5
15B
100
AcDbEntity
  8
一般
370
               5
  6
Continuous
 62
               7
100
AcDbLine
 10
-711.75409699134104
 20
-853.60402948907574
 30
0.0
 11
-712.1500817637376
 21
-856.27354198545629
 31
0.0
  0
LINE
  5
15C
100
AcDbEntity
  8
一般
370
               5
  6
Continuous
 62
               7
100
AcDbLine
 10
-711.62167697482641
 20
-850.90855813001281
 30
0.0
 11
-711.75409699134104
 21
-853.60402948907574
 31
0.0
  0
LINE
  5
15D
100
AcDbEntity
  8
一般
370
               5
  6
Continuous
 62
               7
100
AcDbLine
 10
-711.62167697482641
 20
-780.90855813001281
 30
0.0
 11
-711.62167697482641
 21
-850.90855813001281
 31
0.0
  0
LINE
  5
15E
100
AcDbEntity
  8
一般
370
               5
  6
Continuous
 62
               7
100
AcDbLine
 10
-719.12167697482641
 20
-780.90855813001281
 30
0.0
 11
-711.62167697482641
 21
-780.90855813001281
 31
0.0
  0
LINE
  5
15F
100
AcDbEntity
  8
一般
370
               5
  6
Continuous
 62
               7
100
AcDbLine
 10
-719.12167697482641
 20
-850.90855813001281
 30
0.0
 11
-719.12167697482641
 21
-780.90855813001281
 31
0.0
  0
LINE
  5
160
100
AcDbEntity
  8
一般
370
               5
  6
Continuous
 62
               7
100
AcDbLine
 10
-719.14576785072302
 20
-851.88991161656122
 30
0.0
 11
-719.12167697482641
 21
-850.90855813001281
 31
0.0
  0
LINE
  5
161
100
AcDbEntity
  8
一般
370
               5
  6
Continuous
 62
               7
100
AcDbLine
 10
-719.21798244138245
 20
-852.86890093660406
 30
0.0
 11
-719.14576785072302
 21
-851.88991161656122
 31
0.0
  0
LINE
  5
162
100
AcDbEntity
  8
一般
370
               5
  6
Continuous
 62
               7
100
AcDbLine
 10
-719.33814677553084
 20
-853.84316761912009
 30
0.0
 11
-719.21798244138245
 21
-852.86890093660406
 31
0.0
  0
LINE
  5
163
100
AcDbEntity
  8
一般
370
               5
  6
Continuous
 62
               7
100
AcDbLine
 10
-719.50597136676186
 20
-854.81036457033542
 30
0.0
 11
-719.33814677553084
 21
-853.84316761912009
 31
0.0
  0
LINE
  5
164
100
AcDbEntity
  8
一般
370
               5
  6
Continuous
 62
               7
100
AcDbLine
 10
-719.72105191093556
 20
-855.7681617280781
 30
0.0
 11
-719.50597136676186
 21
-854.81036457033542
 31
0.0
  0
LINE
  5
165
100
AcDbEntity
  8
一般
370
               5
  6
Continuous
 62
               7
100
AcDbLine
 10
-719.98287026018227
 20
-856.7142516751021
 30
0.0
 11
-719.72105191093556
 21
-855.7681617280781
 31
0.0
  0
LINE
  5
166
100
AcDbEntity
  8
一般
370
               5
  6
Continuous
 62
               7
100
AcDbLine
 10
-720.29079567116605
 20
-857.64635519785725
 30
0.0
 11
-719.98287026018227
 21
-856.7142516751021
 31
0.0
  0
LINE
  5
167
100
AcDbEntity
  8
一般
370
               5
  6
Continuous
 62
               7
100
AcDbLine
 10
-720.64408632460072
 20
-858.56222677731455
 30
0.0
 11
-720.29079567116605
 21
-857.64635519785725
 31
0.0
  0
LINE
  5
168
100
AcDbEntity
  8
一般
370
               5
  6
Continuous
 62
               7
100
AcDbLine
 10
-721.04189111235758
 20
-859.45965999861846
 30
0.0
 11
-720.64408632460072
 21
-858.56222677731455
 31
0.0
  0
LINE
  5
169
100
AcDbEntity
  8
一般
370
               5
  6
Continuous
 62
               7
100
AcDbLine
 10
-721.48325168785937
 20
-860.33649286653281
 30
0.0
 11
-721.04189111235758
 21
-859.45965999861846
 31
0.0
  0
LINE
  5
16A
100
AcDbEntity
  8
一般
370
               5
  6
Continuous
 62
               7
100
AcDbLine
 10
-721.967104774821
 20
-861.19061301387728
 30
0.0
 11
-721.48325168785937
 21
-860.33649286653281
 31
0.0
  0
LINE
  5
16B
100
AcDbEntity
  8
一般
370
               5
  6
Continuous
 62
               7
100
AcDbLine
 10
-722.49228472877553
 20
-862.01996279040486
 30
0.0
 11
-721.967104774821
 21
-861.19061301387728
 31
0.0
  0
LINE
  5
16C
100
AcDbEntity
  8
一般
370
               5
  6
Continuous
 62
               7
100
AcDbLine
 10
-723.05752634521355
 20
-862.82254421986147
 30
0.0
 11
-722.49228472877553
 21
-862.01996279040486
 31
0.0
  0
LINE
  5
16D
100
AcDbEntity
  8
一般
370
               5
  6
Continuous
 62
               7
100
AcDbLine
 10
-723.6614679075717
 20
-863.5964238132857
 30
0.0
 11
-723.05752634521355
 21
-862.82254421986147
 31
0.0
  0
LINE
  5
16E
100
AcDbEntity
  8
一般
370
               5
  6
Continuous
 62
               7
100
AcDbLine
 10
-724.30265446772728
 20
-864.33973722695316
 30
0.0
 11
-723.6614679075717
 21
-863.5964238132857
 31
0.0
  0
LINE
  5
16F
100
AcDbEntity
  8
一般
370
               5
  6
Continuous
 62
               7
100
AcDbLine
 10
-724.97954135109546
 20
-865.05069375374376
 30
0.0
 11
-724.30265446772728
 21
-864.33973722695316
 31
0.0
  0
LINE
  5
170
100
AcDbEntity
  8
一般
370
               5
  6
Continuous
 62
               7
100
AcDbLine
 10
-725.69049787788606
 20
-865.72758063711194
 30
0.0
 11
-724.97954135109546
 21
-865.05069375374376
 31
0.0
  0
LINE
  5
171
100
AcDbEntity
  8
一般
370
               5
  6
Continuous
 62
               7
100
AcDbLine
 10
-726.43381129155352
 20
-866.36876719726752
 30
0.0
 11
-725.69049787788606
 21
-865.72758063711194
 31
0.0
  0
LINE
  5
172
100
AcDbEntity
  8
一般
370
               5
  6
Continuous
 62
               7
100
AcDbLine
 10
-727.20769088497775
 20
-866.97270875962568
 30
0.0
 11
-726.43381129155352
 21
-866.36876719726752
 31
0.0
  0
LINE
  5
173
100
AcDbEntity
  8
一般
370
               5
  6
Continuous
 62
               7
100
AcDbLine
 10
-728.01027231443436
 20
-867.53795037606369
 30
0.0
 11
-727.20769088497775
 21
-866.97270875962568
 31
0.0
  0
LINE
  5
174
100
AcDbEntity
  8
一般
370
               5
  6
Continuous
 62
               7
100
AcDbLine
 10
-728.83962209096194
 20
-868.06313033001823
 30
0.0
 11
-728.01027231443436
 21
-867.53795037606369
 31
0.0
  0
LINE
  5
175
100
AcDbEntity
  8
一般
370
               5
  6
Continuous
 62
               7
100
AcDbLine
 10
-729.69374223830641
 20
-868.54698341697986
 30
0.0
 11
-728.83962209096194
 21
-868.06313033001823
 31
0.0
  0
LINE
  5
176
100
AcDbEntity
  8
一般
370
               5
  6
Continuous
 62
               7
100
AcDbLine
 10
-730.57057510622076
 20
-868.98834399248165
 30
0.0
 11
-729.69374223830641
 21
-868.54698341697986
 31
0.0
  0
LINE
  5
177
100
AcDbEntity
  8
一般
370
               5
  6
Continuous
 62
               7
100
AcDbLine
 10
-731.46800832752467
 20
-869.3861487802385
 30
0.0
 11
-730.57057510622076
 21
-868.98834399248165
 31
0.0
  0
LINE
  5
178
100
AcDbEntity
  8
一般
370
               5
  6
Continuous
 62
               7
100
AcDbLine
 10
-732.38387990698197
 20
-869.73943943367317
 30
0.0
 11
-731.46800832752467
 21
-869.3861487802385
 31
0.0
  0
LINE
  5
179
100
AcDbEntity
  8
一般
370
               5
  6
Continuous
 62
               7
100
AcDbLine
 10
-733.31598342973712
 20
-870.04736484465695
 30
0.0
 11
-732.38387990698197
 21
-869.73943943367317
 31
0.0
  0
LINE
  5
17A
100
AcDbEntity
  8
一般
370
               5
  6
Continuous
 62
               7
100
AcDbLine
 10
-734.26207337676112
 20
-870.30918319390366
 30
0.0
 11
-733.31598342973712
 21
-870.04736484465695
 31
0.0
  0
LINE
  5
17B
100
AcDbEntity
  8
一般
370
               5
  6
Continuous
 62
               7
100
AcDbLine
 10
-735.2198705345038
 20
-870.52426373807737
 30
0.0
 11
-734.26207337676112
 21
-870.30918319390366
 31
0.0
  0
LINE
  5
17C
100
AcDbEntity
  8
一般
370
               5
  6
Continuous
 62
               7
100
AcDbLine
 10
-736.18706748571913
 20
-870.69208832930838
 30
0.0
 11
-735.2198705345038
 21
-870.52426373807737
 31
0.0
  0
LINE
  5
17D
100
AcDbEntity
  8
一般
370
               5
  6
Continuous
 62
               7
100
AcDbLine
 10
-737.16133416823516
 20
-870.81225266345677
 30
0.0
 11
-736.18706748571913
 21
-870.69208832930838
 31
0.0
  0
LINE
  5
17E
100
AcDbEntity
  8
一般
370
               5
  6
Continuous
 62
               7
100
AcDbLine
 10
-738.140323488278
 20
-870.8844672541162
 30
0.0
 11
-737.16133416823516
 21
-870.81225266345677
 31
0.0
  0
LINE
  5
17F
100
AcDbEntity
  8
一般
370
               5
  6
Continuous
 62
               7
100
AcDbLine
 10
-739.12167697482641
 20
-870.90855813001281
 30
0.0
 11
-738.140323488278
 21
-870.8844672541162
 31
0.0
  0
LINE
  5
180
100
AcDbEntity
  8
一般
370
               5
  6
Continuous
 62
               7
100
AcDbLine
 10
-834.12167697482641
 20
-870.90855813001281
 30
0.0
 11
-739.12167697482641
 21
-870.90855813001281
 31
0.0
  0
LINE
  5
181
100
AcDbEntity
  8
一般
370
               5
  6
Continuous
 62
               7
100
AcDbLine
 10
-835.10303046137483
 20
-870.8844672541162
 30
0.0
 11
-834.12167697482641
 21
-870.90855813001281
 31
0.0
  0
LINE
  5
182
100
AcDbEntity
  8
一般
370
               5
  6
Continuous
 62
               7
100
AcDbLine
 10
-836.08201978141767
 20
-870.81225266345677
 30
0.0
 11
-835.10303046137483
 21
-870.8844672541162
 31
0.0
  0
LINE
  5
183
100
AcDbEntity
  8
一般
370
               5
  6
Continuous
 62
               7
100
AcDbLine
 10
-837.0562864639337
 20
-870.69208832930838
 30
0.0
 11
-836.08201978141767
 21
-870.81225266345677
 31
0.0
  0
LINE
  5
184
100
AcDbEntity
  8
一般
370
               5
  6
Continuous
 62
               7
100
AcDbLine
 10
-838.02348341514903
 20
-870.52426373807737
 30
0.0
 11
-837.0562864639337
 21
-870.69208832930838
 31
0.0
  0
LINE
  5
185
100
AcDbEntity
  8
一般
370
               5
  6
Continuous
 62
               7
100
AcDbLine
 10
-838.98128057289171
 20
-870.30918319390366
 30
0.0
 11
-838.02348341514903
 21
-870.52426373807737
 31
0.0
  0
LINE
  5
186
100
AcDbEntity
  8
一般
370
               5
  6
Continuous
 62
               7
100
AcDbLine
 10
-839.92737051991571
 20
-870.04736484465695
 30
0.0
 11
-838.98128057289171
 21
-870.30918319390366
 31
0.0
  0
LINE
  5
187
100
AcDbEntity
  8
一般
370
               5
  6
Continuous
 62
               7
100
AcDbLine
 10
-840.85947404267085
 20
-869.73943943367317
 30
0.0
 11
-839.92737051991571
 21
-870.04736484465695
 31
0.0
  0
LINE
  5
188
100
AcDbEntity
  8
一般
370
               5
  6
Continuous
 62
               7
100
AcDbLine
 10
-841.77534562212816
 20
-869.3861487802385
 30
0.0
 11
-840.85947404267085
 21
-869.73943943367317
 31
0.0
  0
LINE
  5
189
100
AcDbEntity
  8
一般
370
               5
  6
Continuous
 62
               7
100
AcDbLine
 10
-842.67277884343207
 20
-868.98834399248165
 30
0.0
 11
-841.77534562212816
 21
-869.3861487802385
 31
0.0
  0
LINE
  5
18A
100
AcDbEntity
  8
一般
370
               5
  6
Continuous
 62
               7
100
AcDbLine
 10
-843.54961171134642
 20
-868.54698341697986
 30
0.0
 11
-842.67277884343207
 21
-868.98834399248165
 31
0.0
  0
LINE
  5
18B
100
AcDbEntity
  8
一般
370
               5
  6
Continuous
 62
               7
100
AcDbLine
 10
-844.40373185869089
 20
-868.06313033001823
 30
0.0
 11
-843.54961171134642
 21
-868.54698341697986
 31
0.0
  0
LINE
  5
18C
100
AcDbEntity
  8
一般
370
               5
  6
Continuous
 62
               7
100
AcDbLine
 10
-845.23308163521847
 20
-867.53795037606369
 30
0.0
 11
-844.40373185869089
 21
-868.06313033001823
 31
0.0
  0
LINE
  5
18D
100
AcDbEntity
  8
一般
370
               5
  6
Continuous
 62
               7
100
AcDbLine
 10
-846.03566306467508
 20
-866.97270875962568
 30
0.0
 11
-845.23308163521847
 21
-867.53795037606369
 31
0.0
  0
LINE
  5
18E
100
AcDbEntity
  8
一般
370
               5
  6
Continuous
 62
               7
100
AcDbLine
 10
-846.8095426580993
 20
-866.36876719726752
 30
0.0
 11
-846.03566306467508
 21
-866.97270875962568
 31
0.0
  0
LINE
  5
18F
100
AcDbEntity
  8
一般
370
               5
  6
Continuous
 62
               7
100
AcDbLine
 10
-847.55285607176677
 20
-865.72758063711194
 30
0.0
 11
-846.8095426580993
 21
-866.36876719726752
 31
0.0
  0
LINE
  5
190
100
AcDbEntity
  8
一般
370
               5
  6
Continuous
 62
               7
100
AcDbLine
 10
-848.26381259855737
 20
-865.05069375374376
 30
0.0
 11
-847.55285607176677
 21
-865.72758063711194
 31
0.0
  0
LINE
  5
191
100
AcDbEntity
  8
一般
370
               5
  6
Continuous
 62
               7
100
AcDbLine
 10
-848.94069948192555
 20
-864.33973722695316
 30
0.0
 11
-848.26381259855737
 21
-865.05069375374376
 31
0.0
  0
LINE
  5
192
100
AcDbEntity
  8
一般
370
               5
  6
Continuous
 62
               7
100
AcDbLine
 10
-849.58188604208112
 20
-863.5964238132857
 30
0.0
 11
-848.94069948192555
 21
-864.33973722695316
 31
0.0
  0
LINE
  5
193
100
AcDbEntity
  8
一般
370
               5
  6
Continuous
 62
               7
100
AcDbLine
 10
-850.18582760443928
 20
-862.82254421986147
 30
0.0
 11
-849.58188604208112
 21
-863.5964238132857
 31
0.0
  0
LINE
  5
194
100
AcDbEntity
  8
一般
370
               5
  6
Continuous
 62
               7
100
AcDbLine
 10
-850.7510692208773
 20
-862.01996279040486
 30
0.0
 11
-850.18582760443928
 21
-862.82254421986147
 31
0.0
  0
LINE
  5
195
100
AcDbEntity
  8
一般
370
               5
  6
Continuous
 62
               7
100
AcDbLine
 10
-851.27624917483183
 20
-861.19061301387728
 30
0.0
 11
-850.7510692208773
 21
-862.01996279040486
 31
0.0
  0
LINE
  5
196
100
AcDbEntity
  8
一般
370
               5
  6
Continuous
 62
               7
100
AcDbLine
 10
-851.76010226179346
 20
-860.33649286653281
 30
0.0
 11
-851.27624917483183
 21
-861.19061301387728
 31
0.0
  0
LINE
  5
197
100
AcDbEntity
  8
一般
370
               5
  6
Continuous
 62
               7
100
AcDbLine
 10
-852.20146283729525
 20
-859.45965999861846
 30
0.0
 11
-851.76010226179346
 21
-860.33649286653281
 31
0.0
  0
LINE
  5
198
100
AcDbEntity
  8
一般
370
               5
  6
Continuous
 62
               7
100
AcDbLine
 10
-852.59926762505211
 20
-858.56222677731455
 30
0.0
 11
-852.20146283729525
 21
-859.45965999861846
 31
0.0
  0
LINE
  5
199
100
AcDbEntity
  8
一般
370
               5
  6
Continuous
 62
               7
100
AcDbLine
 10
-852.95255827848678
 20
-857.64635519785725
 30
0.0
 11
-852.59926762505211
 21
-858.56222677731455
 31
0.0
  0
LINE
  5
19A
100
AcDbEntity
  8
一般
370
               5
  6
Continuous
 62
               7
100
AcDbLine
 10
-853.26048368947056
 20
-856.7142516751021
 30
0.0
 11
-852.95255827848678
 21
-857.64635519785725
 31
0.0
  0
LINE
  5
19B
100
AcDbEntity
  8
一般
370
               5
  6
Continuous
 62
               7
100
AcDbLine
 10
-853.52230203871727
 20
-855.7681617280781
 30
0.0
 11
-853.26048368947056
 21
-856.7142516751021
 31
0.0
  0
LINE
  5
19C
100
AcDbEntity
  8
一般
370
               5
  6
Continuous
 62
               7
100
AcDbLine
 10
-853.73738258289097
 20
-854.81036457033542
 30
0.0
 11
-853.52230203871727
 21
-855.7681617280781
 31
0.0
  0
LINE
  5
19D
100
AcDbEntity
  8
一般
370
               5
  6
Continuous
 62
               7
100
AcDbLine
 10
-853.90520717412198
 20
-853.84316761912009
 30
0.0
 11
-853.73738258289097
 21
-854.81036457033542
 31
0.0
  0
LINE
  5
19E
100
AcDbEntity
  8
一般
370
               5
  6
Continuous
 62
               7
100
AcDbLine
 10
-854.02537150827038
 20
-852.86890093660406
 30
0.0
 11
-853.90520717412198
 21
-853.84316761912009
 31
0.0
  0
LINE
  5
19F
100
AcDbEntity
  8
一般
370
               5
  6
Continuous
 62
               7
100
AcDbLine
 10
-854.09758609892981
 20
-851.88991161656122
 30
0.0
 11
-854.02537150827038
 21
-852.86890093660406
 31
0.0
  0
LINE
  5
1A0
100
AcDbEntity
  8
一般
370
               5
  6
Continuous
 62
               7
100
AcDbLine
 10
-854.12167697482641
 20
-850.90855813001281
 30
0.0
 11
-854.09758609892981
 21
-851.88991161656122
 31
0.0
  0
LINE
  5
1A1
100
AcDbEntity
  8
一般
370
               5
  6
Continuous
 62
               7
100
AcDbLine
 10
-854.12167697482641
 20
-780.90855813001281
 30
0.0
 11
-854.12167697482641
 21
-850.90855813001281
 31
0.0
  0
LINE
  5
1A2
100
AcDbEntity
  8
一般
370
               5
  6
Continuous
 62
               7
100
AcDbLine
 10
-861.62167697482641
 20
-780.90855813001281
 30
0.0
 11
-854.12167697482641
 21
-780.90855813001281
 31
0.0
  0
LINE
  5
1A3
100
AcDbEntity
  8
一般
370
               5
  6
Continuous
 62
               7
100
AcDbLine
 10
-861.62167697482641
 20
-850.90855813001281
 30
0.0
 11
-861.62167697482641
 21
-780.90855813001281
 31
0.0
  0
LINE
  5
1A4
100
AcDbEntity
  8
一般
370
               5
  6
Continuous
 62
               7
100
AcDbLine
 10
-861.48925695831178
 20
-853.60402948907574
 30
0.0
 11
-861.62167697482641
 21
-850.90855813001281
 31
0.0
  0
LINE
  5
1A5
100
AcDbEntity
  8
一般
370
               5
  6
Continuous
 62
               7
100
AcDbLine
 10
-861.09327218591523
 20
-856.27354198545629
 30
0.0
 11
-861.48925695831178
 21
-853.60402948907574
 31
0.0
  0
LINE
  5
1A6
100
AcDbEntity
  8
一般
370
               5
  6
Continuous
 62
               7
100
AcDbLine
 10
-860.43753620746213
 20
-858.89138675451056
 30
0.0
 11
-861.09327218591523
 21
-856.27354198545629
 31
0.0
  0
LINE
  5
1A7
100
AcDbEntity
  8
一般
370
               5
  6
Continuous
 62
               7
100
AcDbLine
 10
-859.52836411888677
 20
-861.43235252005275
 30
0.0
 11
-860.43753620746213
 21
-858.89138675451056
 31
0.0
  0
LINE
  5
1A8
100
AcDbEntity
  8
一般
370
               5
  6
Continuous
 62
               7
100
AcDbLine
 10
-858.37451174440616
 20
-863.87196839272769
 30
0.0
 11
-859.52836411888677
 21
-861.43235252005275
 31
0.0
  0
LINE
  5
1A9
100
AcDbEntity
  8
一般
370
               5
  6
Continuous
 62
               7
100
AcDbLine
 10
-856.98709131314638
 20
-866.18673953805182
 30
0.0
 11
-858.37451174440616
 21
-863.87196839272769
 31
0.0
  0
LINE
  5
1AA
100
AcDbEntity
  8
一般
370
               5
  6
Continuous
 62
               7
100
AcDbLine
 10
-855.3794644423017
 20
-868.35437344451304
 30
0.0
 11
-856.98709131314638
 21
-866.18673953805182
 31
0.0
  0
LINE
  5
1AB
100
AcDbEntity
  8
一般
370
               5
  6
Continuous
 62
               7
100
AcDbLine
 10
-853.56711345745646
 20
-870.35399461264285
 30
0.0
 11
-855.3794644423017
 21
-868.35437344451304
 31
0.0
  0
LINE
  5
1AC
100
AcDbEntity
  8
一般
370
               5
  6
Continuous
 62
               7
100
AcDbLine
 10
-851.56749228932665
 20
-872.16634559748809
 30
0.0
 11
-853.56711345745646
 21
-870.35399461264285
 31
0.0
  0
LINE
  5
1AD
100
AcDbEntity
  8
一般
370
               5
  6
Continuous
 62
               7
100
AcDbLine
 10
-849.39985838286543
 20
-873.77397246833277
 30
0.0
 11
-851.56749228932665
 21
-872.16634559748809
 31
0.0
  0
LINE
  5
1AE
100
AcDbEntity
  8
一般
370
               5
  6
Continuous
 62
               7
100
AcDbLine
 10
-847.0850872375413
 20
-875.16139289959256
 30
0.0
 11
-849.39985838286543
 21
-873.77397246833277
 31
0.0
  0
LINE
  5
1AF
100
AcDbEntity
  8
一般
370
               5
  6
Continuous
 62
               7
100
AcDbLine
 10
-1249.1216769748271
 20
-780.90855813001281
 30
0.0
 11
-1249.1216769748271
 21
-500.90855813001292
 31
0.0
  0
LINE
  5
1B0
100
AcDbEntity
  8
一般
370
               5
  6
Continuous
 62
               7
100
AcDbLine
 10
-589.12167697482596
 20
-780.90855813001281
 30
0.0
 11
-1249.1216769748271
 21
-780.90855813001281
 31
0.0
  0
LINE
  5
1B1
100
AcDbEntity
  8
一般
370
               5
  6
Continuous
 62
               7
100
AcDbLine
 10
-589.12167697482596
 20
-500.90855813001292
 30
0.0
 11
-589.12167697482596
 21
-780.90855813001281
 31
0.0
  0
LINE
  5
1B2
100
AcDbEntity
  8
一般
370
               5
  6
Continuous
 62
               7
100
AcDbLine
 10
-1249.1216769748271
 20
-500.90855813001292
 30
0.0
 11
-589.12167697482596
 21
-500.90855813001292
 31
0.0
  0
LINE
  5
1B3
100
AcDbEntity
  8
一般
370
               5
  6
Continuous
 62
               7
100
AcDbLine
 10
-1249.1216769748273
 20
-500.90855813001292
 30
0.0
 11
-1249.1216769748273
 21
-480.90855813001292
 31
0.0
  0
LINE
  5
1B4
100
AcDbEntity
  8
一般
370
               5
  6
Continuous
 62
               7
100
AcDbLine
 10
-149.12167697482641
 20
-500.90855813001292
 30
0.0
 11
-1249.1216769748273
 21
-500.90855813001292
 31
0.0
  0
LINE
  5
1B5
100
AcDbEntity
  8
一般
370
               5
  6
Continuous
 62
               7
100
AcDbLine
 10
-149.12167697482641
 20
-480.90855813001292
 30
0.0
 11
-149.12167697482641
 21
-500.90855813001292
 31
0.0
  0
LINE
  5
1B6
100
AcDbEntity
  8
一般
370
               5
  6
Continuous
 62
               7
100
AcDbLine
 10
-1249.1216769748273
 20
-480.90855813001292
 30
0.0
 11
-149.12167697482641
 21
-480.90855813001292
 31
0.0
  0
LINE
  5
1B7
100
AcDbEntity
  8
一般
370
               5
  6
Continuous
 62
               7
100
AcDbLine
 10
-169.12167697482641
 20
-600.90855813001281
 30
0.0
 11
-169.12167697482641
 21
-500.90855813001292
 31
0.0
  0
LINE
  5
1B8
100
AcDbEntity
  8
一般
370
               5
  6
Continuous
 62
               7
100
AcDbLine
 10
-149.12167697482641
 20
-600.90855813001281
 30
0.0
 11
-169.12167697482641
 21
-600.90855813001281
 31
0.0
  0
LINE
  5
1B9
100
AcDbEntity
  8
一般
370
               5
  6
Continuous
 62
               7
100
AcDbLine
 10
-149.12167697482641
 20
-500.90855813001292
 30
0.0
 11
-149.12167697482641
 21
-600.90855813001281
 31
0.0
  0
LINE
  5
1BA
100
AcDbEntity
  8
一般
370
               5
  6
Continuous
 62
               7
100
AcDbLine
 10
-169.12167697482641
 20
-500.90855813001292
 30
0.0
 11
-149.12167697482641
 21
-500.90855813001292
 31
0.0
  0
LINE
  5
1BB
100
AcDbEntity
  8
一般
370
               5
  6
Continuous
 62
               7
100
AcDbLine
 10
-404.12167697482641
 20
-600.90855813001281
 30
0.0
 11
-404.12167697482641
 21
-500.90855813001292
 31
0.0
  0
LINE
  5
1BC
100
AcDbEntity
  8
一般
370
               5
  6
Continuous
 62
               7
100
AcDbLine
 10
-389.12167697482641
 20
-600.90855813001281
 30
0.0
 11
-404.12167697482641
 21
-600.90855813001281
 31
0.0
  0
LINE
  5
1BD
100
AcDbEntity
  8
一般
370
               5
  6
Continuous
 62
               7
100
AcDbLine
 10
-389.12167697482641
 20
-500.90855813001292
 30
0.0
 11
-389.12167697482641
 21
-600.90855813001281
 31
0.0
  0
LINE
  5
1BE
100
AcDbEntity
  8
一般
370
               5
  6
Continuous
 62
               7
100
AcDbLine
 10
-404.12167697482641
 20
-500.90855813001292
 30
0.0
 11
-389.12167697482641
 21
-500.90855813001292
 31
0.0
  0
LINE
  5
1BF
100
AcDbEntity
  8
一般
370
               5
  6
Continuous
 62
               7
100
AcDbLine
 10
-589.12167697482641
 20
-600.90855813001281
 30
0.0
 11
-589.12167697482641
 21
-500.90855813001292
 31
0.0
  0
LINE
  5
1C0
100
AcDbEntity
  8
一般
370
               5
  6
Continuous
 62
               7
100
AcDbLine
 10
-569.12167697482641
 20
-600.90855813001281
 30
0.0
 11
-589.12167697482641
 21
-600.90855813001281
 31
0.0
  0
LINE
  5
1C1
100
AcDbEntity
  8
一般
370
               5
  6
Continuous
 62
               7
100
AcDbLine
 10
-569.12167697482641
 20
-500.90855813001292
 30
0.0
 11
-569.12167697482641
 21
-600.90855813001281
 31
0.0
  0
LINE
  5
1C2
100
AcDbEntity
  8
一般
370
               5
  6
Continuous
 62
               7
100
AcDbLine
 10
-589.12167697482641
 20
-500.90855813001292
 30
0.0
 11
-569.12167697482641
 21
-500.90855813001292
 31
0.0
  0
LINE
  5
1C3
100
AcDbEntity
  8
一般
370
               5
  6
Continuous
 62
               7
100
AcDbLine
 10
-369.12167697482641
 20
-685.90855813001281
 30
0.0
 11
-369.12135302279717
 21
-685.90855813001281
 31
0.0
  0
LINE
  5
1C4
100
AcDbEntity
  8
一般
370
               5
  6
Continuous
 62
               7
100
AcDbLine
 10
-369.12167697482641
 20
-600.90855813001281
 30
0.0
 11
-369.12167697482641
 21
-685.90855813001281
 31
0.0
  0
LINE
  5
1C5
100
AcDbEntity
  8
一般
370
               5
  6
Continuous
 62
               7
100
AcDbLine
 10
-589.12167697482641
 20
-600.90855813001281
 30
0.0
 11
-369.12167697482641
 21
-600.90855813001281
 31
0.0
  0
LINE
  5
1C6
100
AcDbEntity
  8
一般
370
               5
  6
Continuous
 62
               7
100
AcDbLine
 10
-589.12167697482641
 20
-1230.9085581300128
 30
0.0
 11
-589.12167697482641
 21
-600.90855813001281
 31
0.0
  0
LINE
  5
1C7
100
AcDbEntity
  8
一般
370
               5
  6
Continuous
 62
               7
100
AcDbLine
 10
-149.12167697482641
 20
-1230.9085581300128
 30
0.0
 11
-589.12167697482641
 21
-1230.9085581300128
 31
0.0
  0
LINE
  5
1C8
100
AcDbEntity
  8
一般
370
               5
  6
Continuous
 62
               7
100
AcDbLine
 10
-149.12167697482641
 20
-600.90855813001281
 30
0.0
 11
-149.12167697482641
 21
-1230.9085581300128
 31
0.0
  0
LINE
  5
1C9
100
AcDbEntity
  8
一般
370
               5
  6
Continuous
 62
               7
100
AcDbLine
 10
-199.12167697482641
 20
-600.90855813001281
 30
0.0
 11
-149.12167697482641
 21
-600.90855813001281
 31
0.0
  0
LINE
  5
1CA
100
AcDbEntity
  8
一般
370
               5
  6
Continuous
 62
               7
100
AcDbLine
 10
-199.12167697482641
 20
-685.90855813001281
 30
0.0
 11
-199.12167697482641
 21
-600.90855813001281
 31
0.0
  0
LINE
  5
1CB
100
AcDbEntity
  8
一般
370
               5
  6
Continuous
 62
               7
100
AcDbLine
 10
-199.12266523913138
 20
-686.08074103416709
 30
0.0
 11
-199.12167697482641
 21
-685.90855813001281
 31
0.0
  0
LINE
  5
1CC
100
AcDbEntity
  8
一般
370
               5
  6
Continuous
 62
               7
100
AcDbLine
 10
-199.12562990182414
 20
-686.25290125002562
 30
0.0
 11
-199.12266523913138
 21
-686.08074103416709
 31
0.0
  0
LINE
  5
1CD
100
AcDbEntity
  8
一般
370
               5
  6
Continuous
 62
               7
100
AcDbLine
 10
-199.13057057225529
 20
-686.42501609228225
 30
0.0
 11
-199.12562990182414
 21
-686.25290125002562
 31
0.0
  0
LINE
  5
1CE
100
AcDbEntity
  8
一般
370
               5
  6
Continuous
 62
               7
100
AcDbLine
 10
-199.13748659939978
 20
-686.59706288160976
 30
0.0
 11
-199.13057057225529
 21
-686.42501609228225
 31
0.0
  0
LINE
  5
1CF
100
AcDbEntity
  8
一般
370
               5
  6
Continuous
 62
               7
100
AcDbLine
 10
-199.14637707194251
 20
-686.76901894764785
 30
0.0
 11
-199.13748659939978
 21
-686.59706288160976
 31
0.0
  0
LINE
  5
1D0
100
AcDbEntity
  8
一般
370
               5
  6
Continuous
 62
               7
100
AcDbLine
 10
-199.15724081839863
 20
-686.94086163199108
 30
0.0
 11
-199.14637707194251
 21
-686.76901894764785
 31
0.0
  0
LINE
  5
1D1
100
AcDbEntity
  8
一般
370
               5
  6
Continuous
 62
               7
100
AcDbLine
 10
-199.17007640726774
 20
-687.11256829117383
 30
0.0
 11
-199.15724081839863
 21
-686.94086163199108
 31
0.0
  0
LINE
  5
1D2
100
AcDbEntity
  8
一般
370
               5
  6
Continuous
 62
               7
100
AcDbLine
 10
-199.18488214722262
 20
-687.28411629965467
 30
0.0
 11
-199.17007640726774
 21
-687.11256829117383
 31
0.0
  0
LINE
  5
1D3
100
AcDbEntity
  8
一般
370
               5
  6
Continuous
 62
               7
100
AcDbLine
 10
-199.20165608733203
 20
-687.45548305279704
 30
0.0
 11
-199.18488214722262
 21
-687.28411629965467
 31
0.0
  0
LINE
  5
1D4
100
AcDbEntity
  8
一般
370
               5
  6
Continuous
 62
               7
100
AcDbLine
 10
-199.2203960173178
 20
-687.62664596984814
 30
0.0
 11
-199.20165608733203
 21
-687.45548305279704
 31
0.0
  0
LINE
  5
1D5
100
AcDbEntity
  8
一般
370
               5
  6
Continuous
 62
               7
100
AcDbLine
 10
-199.24109946784603
 20
-687.79758249691474
 30
0.0
 11
-199.2203960173178
 21
-687.62664596984814
 31
0.0
  0
LINE
  5
1D6
100
AcDbEntity
  8
一般
370
               5
  6
Continuous
 62
               7
100
AcDbLine
 10
-199.26376371085263
 20
-687.96827010993411
 30
0.0
 11
-199.24109946784603
 21
-687.79758249691474
 31
0.0
  0
LINE
  5
1D7
100
AcDbEntity
  8
一般
370
               5
  6
Continuous
 62
               7
100
AcDbLine
 10
-199.28838575990261
 20
-688.13868631764319
 30
0.0
 11
-199.26376371085263
 21
-687.96827010993411
 31
0.0
  0
LINE
  5
1D8
100
AcDbEntity
  8
一般
370
               5
  6
Continuous
 62
               7
100
AcDbLine
 10
-199.31496237058366
 20
-688.30880866454106
 30
0.0
 11
-199.28838575990261
 21
-688.13868631764319
 31
0.0
  0
LINE
  5
1D9
100
AcDbEntity
  8
一般
370
               5
  6
Continuous
 62
               7
100
AcDbLine
 10
-199.34349004093369
 20
-688.47861473384876
 30
0.0
 11
-199.31496237058366
 21
-688.30880866454106
 31
0.0
  0
LINE
  5
1DA
100
AcDbEntity
  8
一般
370
               5
  6
Continuous
 62
               7
100
AcDbLine
 10
-199.37396501190216
 20
-688.64808215046276
 30
0.0
 11
-199.34349004093369
 21
-688.47861473384876
 31
0.0
  0
LINE
  5
1DB
100
AcDbEntity
  8
一般
370
               5
  6
Continuous
 62
               7
100
AcDbLine
 10
-199.53790342331135
 20
-689.41762481477815
 30
0.0
 11
-199.37396501190216
 21
-688.64808215046276
 31
0.0
  0
LINE
  5
1DC
100
AcDbEntity
  8
一般
370
               5
  6
Continuous
 62
               7
100
AcDbLine
 10
-199.7419680645107
 20
-690.17751252829191
 30
0.0
 11
-199.53790342331135
 21
-689.41762481477815
 31
0.0
  0
LINE
  5
1DD
100
AcDbEntity
  8
一般
370
               5
  6
Continuous
 62
               7
100
AcDbLine
 10
-199.98559746595629
 20
-690.92565451327096
 30
0.0
 11
-199.7419680645107
 21
-690.17751252829191
 31
0.0
  0
LINE
  5
1DE
100
AcDbEntity
  8
一般
370
               5
  6
Continuous
 62
               7
100
AcDbLine
 10
-200.26812129844208
 20
-691.65999230953003
 30
0.0
 11
-199.98559746595629
 21
-690.92565451327096
 31
0.0
  0
LINE
  5
1DF
100
AcDbEntity
  8
一般
370
               5
  6
Continuous
 62
               7
100
AcDbLine
 10
-200.58876221746368
 20
-692.37850543814079
 30
0.0
 11
-200.26812129844208
 21
-691.65999230953003
 31
0.0
  0
LINE
  5
1E0
100
AcDbEntity
  8
一般
370
               5
  6
Continuous
 62
               7
100
AcDbLine
 10
-200.94663800202721
 20
-693.07921696063772
 30
0.0
 11
-200.58876221746368
 21
-692.37850543814079
 31
0.0
  0
LINE
  5
1E1
100
AcDbEntity
  8
一般
370
               5
  6
Continuous
 62
               7
100
AcDbLine
 10
-201.34076398201853
 20
-693.76019891842589
 30
0.0
 11
-200.94663800202721
 21
-693.07921696063772
 31
0.0
  0
LINE
  5
1E2
100
AcDbEntity
  8
一般
370
               5
  6
Continuous
 62
               7
100
AcDbLine
 10
-201.77005574745394
 20
-694.419577637423
 30
0.0
 11
-201.34076398201853
 21
-693.76019891842589
 31
0.0
  0
LINE
  5
1E3
100
AcDbEntity
  8
一般
370
               5
  6
Continuous
 62
               7
100
AcDbLine
 10
-202.23333213215813
 20
-695.05553888334327
 30
0.0
 11
-201.77005574745394
 21
-694.419577637423
 31
0.0
  0
LINE
  5
1E4
100
AcDbEntity
  8
一般
370
               5
  6
Continuous
 62
               7
100
AcDbLine
 10
-202.72931846366018
 20
-695.66633285343482
 30
0.0
 11
-202.23333213215813
 21
-695.05553888334327
 31
0.0
  0
LINE
  5
1E5
100
AcDbEntity
  8
一般
370
               5
  6
Continuous
 62
               7
100
AcDbLine
 10
-203.25665007036528
 20
-696.25027899093971
 30
0.0
 11
-202.72931846366018
 21
-695.66633285343482
 31
0.0
  0
LINE
  5
1E6
100
AcDbEntity
  8
一般
370
               5
  6
Continuous
 62
               7
100
AcDbLine
 10
-203.81387603635295
 20
-696.80577060902783
 30
0.0
 11
-203.25665007036528
 21
-696.25027899093971
 31
0.0
  0
LINE
  5
1E7
100
AcDbEntity
  8
一般
370
               5
  6
Continuous
 62
               7
100
AcDbLine
 10
-204.39946319347047
 20
-697.33127931148294
 30
0.0
 11
-203.81387603635295
 21
-696.80577060902783
 31
0.0
  0
LINE
  5
1E8
100
AcDbEntity
  8
一般
370
               5
  6
Continuous
 62
               7
100
AcDbLine
 10
-205.01180033973733
 20
-697.82535919797783
 30
0.0
 11
-204.39946319347047
 21
-697.33127931148294
 31
0.0
  0
LINE
  5
1E9
100
AcDbEntity
  8
一般
370
               5
  6
Continuous
 62
               7
100
AcDbLine
 10
-205.64920267245466
 20
-698.28665084236729
 30
0.0
 11
-205.01180033973733
 21
-697.82535919797783
 31
0.0
  0
LINE
  5
1EA
100
AcDbEntity
  8
一般
370
               5
  6
Continuous
 62
               7
100
AcDbLine
 10
-206.30991642382133
 20
-698.71388503305434
 30
0.0
 11
-205.64920267245466
 21
-698.28665084236729
 31
0.0
  0
LINE
  5
1EB
100
AcDbEntity
  8
一般
370
               5
  6
Continuous
 62
               7
100
AcDbLine
 10
-206.7528041230658
 20
-698.97376708962736
 30
0.0
 11
-206.30991642382133
 21
-698.71388503305434
 31
0.0
  0
LINE
  5
1EC
100
AcDbEntity
  8
一般
370
               5
  6
Continuous
 62
               7
100
AcDbLine
 10
-207.20432860852725
 20
-699.21833576403071
 30
0.0
 11
-206.7528041230658
 21
-698.97376708962736
 31
0.0
  0
LINE
  5
1ED
100
AcDbEntity
  8
一般
370
               5
  6
Continuous
 62
               7
100
AcDbLine
 10
-207.66396060586729
 20
-699.44730437430701
 30
0.0
 11
-207.20432860852725
 21
-699.21833576403071
 31
0.0
  0
LINE
  5
1EE
100
AcDbEntity
  8
一般
370
               5
  6
Continuous
 62
               7
100
AcDbLine
 10
-208.13116133716997
 20
-699.66040452480183
 30
0.0
 11
-207.66396060586729
 21
-699.44730437430701
 31
0.0
  0
LINE
  5
1EF
100
AcDbEntity
  8
一般
370
               5
  6
Continuous
 62
               7
100
AcDbLine
 10
-208.60538315249391
 20
-699.85738642077581
 30
0.0
 11
-208.13116133716997
 21
-699.66040452480183
 31
0.0
  0
LINE
  5
1F0
100
AcDbEntity
  8
一般
370
               5
  6
Continuous
 62
               7
100
AcDbLine
 10
-209.08607017182456
 20
-700.03801916121256
 30
0.0
 11
-208.60538315249391
 21
-699.85738642077581
 31
0.0
  0
LINE
  5
1F1
100
AcDbEntity
  8
一般
370
               5
  6
Continuous
 62
               7
100
AcDbLine
 10
-209.57265893667332
 20
-700.20209100947909
 30
0.0
 11
-209.08607017182456
 21
-700.03801916121256
 31
0.0
  0
LINE
  5
1F2
100
AcDbEntity
  8
一般
370
               5
  6
Continuous
 62
               7
100
AcDbLine
 10
-210.06457907056034
 20
-700.34940964152281
 30
0.0
 11
-209.57265893667332
 21
-700.20209100947909
 31
0.0
  0
LINE
  5
1F3
100
AcDbEntity
  8
一般
370
               5
  6
Continuous
 62
               7
100
AcDbLine
 10
-210.56125394760642
 20
-700.47980237131219
 30
0.0
 11
-210.06457907056034
 21
-700.34940964152281
 31
0.0
  0
LINE
  5
1F4
100
AcDbEntity
  8
一般
370
               5
  6
Continuous
 62
               7
100
AcDbLine
 10
-211.06210136845047
 20
-700.59311635325855
 30
0.0
 11
-210.56125394760642
 21
-700.47980237131219
 31
0.0
  0
LINE
  5
1F5
100
AcDbEntity
  8
一般
370
               5
  6
Continuous
 62
               7
100
AcDbLine
 10
-211.56653424270013
 20
-700.68921876138063
 30
0.0
 11
-211.06210136845047
 21
-700.59311635325855
 31
0.0
  0
LINE
  5
1F6
100
AcDbEntity
  8
一般
370
               5
  6
Continuous
 62
               7
100
AcDbLine
 10
-212.07396127711581
 20
-700.76799694500255
 30
0.0
 11
-211.56653424270013
 21
-700.68921876138063
 31
0.0
  0
LINE
  5
1F7
100
AcDbEntity
  8
一般
370
               5
  6
Continuous
 62
               7
100
AcDbLine
 10
-212.58378766872096
 20
-700.82935856080212
 30
0.0
 11
-212.07396127711581
 21
-700.76799694500255
 31
0.0
  0
LINE
  5
1F8
100
AcDbEntity
  8
一般
370
               5
  6
Continuous
 62
               7
100
AcDbLine
 10
-213.09541580202668
 20
-700.87323168105536
 30
0.0
 11
-212.58378766872096
 21
-700.82935856080212
 31
0.0
  0
LINE
  5
1F9
100
AcDbEntity
  8
一般
370
               5
  6
Continuous
 62
               7
100
AcDbLine
 10
-213.60824594955312
 20
-700.8995648779495
 30
0.0
 11
-213.09541580202668
 21
-700.87323168105536
 31
0.0
  0
LINE
  5
1FA
100
AcDbEntity
  8
一般
370
               5
  6
Continuous
 62
               7
100
AcDbLine
 10
-214.12167697482641
 20
-700.90832728386636
 30
0.0
 11
-213.60824594955312
 21
-700.8995648779495
 31
0.0
  0
LINE
  5
1FB
100
AcDbEntity
  8
一般
370
               5
  6
Continuous
 62
               7
100
AcDbLine
 10
-214.12167697482641
 20
-700.90855813001281
 30
0.0
 11
-214.12167697482641
 21
-700.90832728386636
 31
0.0
  0
LINE
  5
1FC
100
AcDbEntity
  8
一般
370
               5
  6
Continuous
 62
               7
100
AcDbLine
 10
-354.12167697482641
 20
-700.90855813001281
 30
0.0
 11
-214.12167697482641
 21
-700.90855813001281
 31
0.0
  0
LINE
  5
1FD
100
AcDbEntity
  8
一般
370
               5
  6
Continuous
 62
               7
100
AcDbLine
 10
-354.71300238994786
 20
-700.89689807322975
 30
0.0
 11
-354.12167697482641
 21
-700.90855813001281
 31
0.0
  0
LINE
  5
1FE
100
AcDbEntity
  8
一般
370
               5
  6
Continuous
 62
               7
100
AcDbLine
 10
-355.30340848668027
 20
-700.86193603047036
 30
0.0
 11
-354.71300238994786
 21
-700.89689807322975
 31
0.0
  0
LINE
  5
1FF
100
AcDbEntity
  8
一般
370
               5
  6
Continuous
 62
               7
100
AcDbLine
 10
-355.89197737587523
 20
-700.80372635632182
 30
0.0
 11
-355.30340848668027
 21
-700.86193603047036
 31
0.0
  0
LINE
  5
200
100
AcDbEntity
  8
一般
370
               5
  6
Continuous
 62
               7
100
AcDbLine
 10
-356.47779402464363
 20
-700.72235954786504
 30
0.0
 11
-355.89197737587523
 21
-700.80372635632182
 31
0.0
  0
LINE
  5
201
100
AcDbEntity
  8
一般
370
               5
  6
Continuous
 62
               7
100
AcDbLine
 10
-357.05994767893361
 20
-700.61796210398074
 30
0.0
 11
-356.47779402464363
 21
-700.72235954786504
 31
0.0
  0
LINE
  5
202
100
AcDbEntity
  8
一般
370
               5
  6
Continuous
 62
               7
100
AcDbLine
 10
-357.63753327945636
 20
-700.49069632868566
 30
0.0
 11
-357.05994767893361
 21
-700.61796210398074
 31
0.0
  0
LINE
  5
203
100
AcDbEntity
  8
一般
370
               5
  6
Continuous
 62
               7
100
AcDbLine
 10
-358.20965286875867
 20
-700.34076007880174
 30
0.0
 11
-357.63753327945636
 21
-700.49069632868566
 31
0.0
  0
LINE
  5
204
100
AcDbEntity
  8
一般
370
               5
  6
Continuous
 62
               7
100
AcDbLine
 10
-358.77541698725418
 20
-700.16838645635426
 30
0.0
 11
-358.20965286875867
 21
-700.34076007880174
 31
0.0
  0
LINE
  5
205
100
AcDbEntity
  8
一般
370
               5
  6
Continuous
 62
               7
100
AcDbLine
 10
-359.3339460560432
 20
-699.97384344617296
 30
0.0
 11
-358.77541698725418
 21
-700.16838645635426
 31
0.0
  0
LINE
  5
206
100
AcDbEntity
  8
一般
370
               5
  6
Continuous
 62
               7
100
AcDbLine
 10
-359.88437174437149
 20
-699.75743349926415
 30
0.0
 11
-359.3339460560432
 21
-699.97384344617296
 31
0.0
  0
LINE
  5
207
100
AcDbEntity
  8
一般
370
               5
  6
Continuous
 62
               7
100
AcDbLine
 10
-360.42583831960155
 20
-699.51949306259712
 30
0.0
 11
-359.88437174437149
 21
-699.75743349926415
 31
0.0
  0
LINE
  5
208
100
AcDbEntity
  8
一般
370
               5
  6
Continuous
 62
               7
100
AcDbLine
 10
-360.95750397759826
 20
-699.26039205603865
 30
0.0
 11
-360.42583831960155
 21
-699.51949306259712
 31
0.0
  0
LINE
  5
209
100
AcDbEntity
  8
一般
370
               5
  6
Continuous
 62
               7
100
AcDbLine
 10
-361.47854215146015
 20
-698.98053329724871
 30
0.0
 11
-360.95750397759826
 21
-699.26039205603865
 31
0.0
  0
LINE
  5
20A
100
AcDbEntity
  8
一般
370
               5
  6
Continuous
 62
               7
100
AcDbLine
 10
-361.98814279656131
 20
-698.68035187542989
 30
0.0
 11
-361.47854215146015
 21
-698.98053329724871
 31
0.0
  0
LINE
  5
20B
100
AcDbEntity
  8
一般
370
               5
  6
Continuous
 62
               7
100
AcDbLine
 10
-362.48551364990732
 20
-698.36031447490529
 30
0.0
 11
-361.98814279656131
 21
-698.68035187542989
 31
0.0
  0
LINE
  5
20C
100
AcDbEntity
  8
一般
370
               5
  6
Continuous
 62
               7
100
AcDbLine
 10
-362.96988146184589
 20
-698.02091864957663
 30
0.0
 11
-362.48551364990732
 21
-698.36031447490529
 31
0.0
  0
LINE
  5
20D
100
AcDbEntity
  8
一般
370
               5
  6
Continuous
 62
               7
100
AcDbLine
 10
-363.59422795348746
 20
-697.53915475944962
 30
0.0
 11
-362.96988146184589
 21
-698.02091864957663
 31
0.0
  0
LINE
  5
20E
100
AcDbEntity
  8
一般
370
               5
  6
Continuous
 62
               7
100
AcDbLine
 10
-364.19239210425098
 20
-697.02524364242959
 30
0.0
 11
-363.59422795348746
 21
-697.53915475944962
 31
0.0
  0
LINE
  5
20F
100
AcDbEntity
  8
一般
370
               5
  6
Continuous
 62
               7
100
AcDbLine
 10
-364.76272057516462
 20
-696.48060576023568
 30
0.0
 11
-364.19239210425098
 21
-697.02524364242959
 31
0.0
  0
LINE
  5
210
100
AcDbEntity
  8
一般
370
               5
  6
Continuous
 62
               7
100
AcDbLine
 10
-365.30363696569253
 20
-695.90674650404674
 30
0.0
 11
-364.76272057516462
 21
-696.48060576023568
 31
0.0
  0
LINE
  5
211
100
AcDbEntity
  8
一般
370
               5
  6
Continuous
 62
               7
100
AcDbLine
 10
-365.81364617094118
 20
-695.30525203356751
 30
0.0
 11
-365.30363696569253
 21
-695.90674650404674
 31
0.0
  0
LINE
  5
212
100
AcDbEntity
  8
一般
370
               5
  6
Continuous
 62
               7
100
AcDbLine
 10
-366.29133851416202
 20
-694.67778489284728
 30
0.0
 11
-365.81364617094118
 21
-695.30525203356751
 31
0.0
  0
LINE
  5
213
100
AcDbEntity
  8
一般
370
               5
  6
Continuous
 62
               7
100
AcDbLine
 10
-366.73539364312973
 20
-694.02607941497183
 30
0.0
 11
-366.29133851416202
 21
-694.67778489284728
 31
0.0
  0
LINE
  5
214
100
AcDbEntity
  8
一般
370
               5
  6
Continuous
 62
               7
100
AcDbLine
 10
-367.14458417962476
 20
-693.35193692832797
 30
0.0
 11
-366.73539364312973
 21
-694.02607941497183
 31
0.0
  0
LINE
  5
215
100
AcDbEntity
  8
一般
370
               5
  6
Continuous
 62
               7
100
AcDbLine
 10
-367.51777911193381
 20
-692.65722077769215
 30
0.0
 11
-367.14458417962476
 21
-693.35193692832797
 31
0.0
  0
LINE
  5
216
100
AcDbEntity
  8
一般
370
               5
  6
Continuous
 62
               7
100
AcDbLine
 10
-367.85394692099158
 20
-691.94385117390414
 30
0.0
 11
-367.51777911193381
 21
-692.65722077769215
 31
0.0
  0
LINE
  5
217
100
AcDbEntity
  8
一般
370
               5
  6
Continuous
 62
               7
100
AcDbLine
 10
-368.15215843152225
 20
-691.2137998863617
 30
0.0
 11
-367.85394692099158
 21
-691.94385117390414
 31
0.0
  0
LINE
  5
218
100
AcDbEntity
  8
一般
370
               5
  6
Continuous
 62
               7
100
AcDbLine
 10
-368.41158938030043
 20
-690.46908479300623
 30
0.0
 11
-368.15215843152225
 21
-691.2137998863617
 31
0.0
  0
LINE
  5
219
100
AcDbEntity
  8
一般
370
               5
  6
Continuous
 62
               7
100
AcDbLine
 10
-368.63152269443293
 20
-689.71176430286334
 30
0.0
 11
-368.41158938030043
 21
-690.46908479300623
 31
0.0
  0
LINE
  5
21A
100
AcDbEntity
  8
一般
370
               5
  6
Continuous
 62
               7
100
AcDbLine
 10
-368.81135047336437
 20
-688.94393166655516
 30
0.0
 11
-368.63152269443293
 21
-689.71176430286334
 31
0.0
  0
LINE
  5
21B
100
AcDbEntity
  8
一般
370
               5
  6
Continuous
 62
               7
100
AcDbLine
 10
-368.95057566912772
 20
-688.1677091905085
 30
0.0
 11
-368.81135047336437
 21
-688.94393166655516
 31
0.0
  0
LINE
  5
21C
100
AcDbEntity
  8
一般
370
               5
  6
Continuous
 62
               7
100
AcDbLine
 10
-369.04881346019607
 20
-687.38524237085323
 30
0.0
 11
-368.95057566912772
 21
-688.1677091905085
 31
0.0
  0
LINE
  5
21D
100
AcDbEntity
  8
一般
370
               5
  6
Continuous
 62
               7
100
AcDbLine
 10
-369.05762916977955
 20
-687.29322200129229
 30
0.0
 11
-369.04881346019607
 21
-687.38524237085323
 31
0.0
  0
LINE
  5
21E
100
AcDbEntity
  8
一般
370
               5
  6
Continuous
 62
               7
100
AcDbLine
 10
-369.06587509062246
 20
-687.20114882420444
 30
0.0
 11
-369.05762916977955
 21
-687.29322200129229
 31
0.0
  0
LINE
  5
21F
100
AcDbEntity
  8
一般
370
               5
  6
Continuous
 62
               7
100
AcDbLine
 10
-369.0735509067548
 20
-687.10902636767889
 30
0.0
 11
-369.06587509062246
 21
-687.20114882420444
 31
0.0
  0
LINE
  5
220
100
AcDbEntity
  8
一般
370
               5
  6
Continuous
 62
               7
100
AcDbLine
 10
-369.08065632405226
 20
-687.01685816169311
 30
0.0
 11
-369.0735509067548
 21
-687.10902636767889
 31
0.0
  0
LINE
  5
221
100
AcDbEntity
  8
一般
370
               5
  6
Continuous
 62
               7
100
AcDbLine
 10
-369.08719107024723
 20
-686.92464773797769
 30
0.0
 11
-369.08065632405226
 21
-687.01685816169311
 31
0.0
  0
LINE
  5
222
100
AcDbEntity
  8
一般
370
               5
  6
Continuous
 62
               7
100
AcDbLine
 10
-369.09315489493923
 20
-686.83239862988103
 30
0.0
 11
-369.08719107024723
 21
-686.92464773797769
 31
0.0
  0
LINE
  5
223
100
AcDbEntity
  8
一般
370
               5
  6
Continuous
 62
               7
100
AcDbLine
 10
-369.09854756960453
 20
-686.74011437223351
 30
0.0
 11
-369.09315489493923
 21
-686.83239862988103
 31
0.0
  0
LINE
  5
224
100
AcDbEntity
  8
一般
370
               5
  6
Continuous
 62
               7
100
AcDbLine
 10
-369.10336888760486
 20
-686.64779850121261
 30
0.0
 11
-369.09854756960453
 21
-686.74011437223351
 31
0.0
  0
LINE
  5
225
100
AcDbEntity
  8
一般
370
               5
  6
Continuous
 62
               7
100
AcDbLine
 10
-369.10761866419546
 20
-686.55545455420724
 30
0.0
 11
-369.10336888760486
 21
-686.64779850121261
 31
0.0
  0
LINE
  5
226
100
AcDbEntity
  8
一般
370
               5
  6
Continuous
 62
               7
100
AcDbLine
 10
-369.11129673653204
 20
-686.46308606968205
 30
0.0
 11
-369.10761866419546
 21
-686.55545455420724
 31
0.0
  0
LINE
  5
227
100
AcDbEntity
  8
一般
370
               5
  6
Continuous
 62
               7
100
AcDbLine
 10
-369.11440296367709
 20
-686.37069658704183
 30
0.0
 11
-369.11129673653204
 21
-686.46308606968205
 31
0.0
  0
LINE
  5
228
100
AcDbEntity
  8
一般
370
               5
  6
Continuous
 62
               7
100
AcDbLine
 10
-369.11693722660522
 20
-686.27828964649621
 30
0.0
 11
-369.11440296367709
 21
-686.37069658704183
 31
0.0
  0
LINE
  5
229
100
AcDbEntity
  8
一般
370
               5
  6
Continuous
 62
               7
100
AcDbLine
 10
-369.11889942820767
 20
-686.18586878892347
 30
0.0
 11
-369.11693722660522
 21
-686.27828964649621
 31
0.0
  0
LINE
  5
22A
100
AcDbEntity
  8
一般
370
               5
  6
Continuous
 62
               7
100
AcDbLine
 10
-369.12028949329624
 20
-686.09343755573548
 30
0.0
 11
-369.11889942820767
 21
-686.18586878892347
 31
0.0
  0
LINE
  5
22B
100
AcDbEntity
  8
一般
370
               5
  6
Continuous
 62
               7
100
AcDbLine
 10
-369.12110736860592
 20
-686.00099948874163
 30
0.0
 11
-369.12028949329624
 21
-686.09343755573548
 31
0.0
  0
LINE
  5
22C
100
AcDbEntity
  8
一般
370
               5
  6
Continuous
 62
               7
100
AcDbLine
 10
-369.12135302279717
 20
-685.90855813001281
 30
0.0
 11
-369.12110736860592
 21
-686.00099948874163
 31
0.0
  0
LINE
  5
22D
100
AcDbEntity
  8
一般
370
               5
  6
Continuous
 62
               7
100
AcDbLine
 10
-1249.1216769748273
 20
-1330.9085581300128
 30
0.0
 11
-1249.1216769748273
 21
-1230.9085581300128
 31
0.0
  0
LINE
  5
22E
100
AcDbEntity
  8
一般
370
               5
  6
Continuous
 62
               7
100
AcDbLine
 10
-149.12167697482641
 20
-1330.9085581300128
 30
0.0
 11
-1249.1216769748273
 21
-1330.9085581300128
 31
0.0
  0
LINE
  5
22F
100
AcDbEntity
  8
一般
370
               5
  6
Continuous
 62
               7
100
AcDbLine
 10
-149.12167697482641
 20
-1230.9085581300128
 30
0.0
 11
-149.12167697482641
 21
-1330.9085581300128
 31
0.0
  0
LINE
  5
230
100
AcDbEntity
  8
一般
370
               5
  6
Continuous
 62
               7
100
AcDbLine
 10
-1249.1216769748273
 20
-1230.9085581300128
 30
0.0
 11
-149.12167697482641
 21
-1230.9085581300128
 31
0.0
  0
LINE
  5
231
100
AcDbEntity
  8
一般
370
               5
  6
Continuous
 62
               7
100
AcDbLine
 10
-956.62167697482732
 20
-1295.9085581300128
 30
0.0
 11
-956.62167697482732
 21
-1265.9085581300128
 31
0.0
  0
LINE
  5
232
100
AcDbEntity
  8
一般
370
               5
  6
Continuous
 62
               7
100
AcDbLine
 10
-861.62167697482732
 20
-1295.9085581300128
 30
0.0
 11
-956.62167697482732
 21
-1295.9085581300128
 31
0.0
  0
LINE
  5
233
100
AcDbEntity
  8
一般
370
               5
  6
Continuous
 62
               7
100
AcDbLine
 10
-861.62167697482732
 20
-1265.9085581300128
 30
0.0
 11
-861.62167697482732
 21
-1295.9085581300128
 31
0.0
  0
LINE
  5
234
100
AcDbEntity
  8
一般
370
               5
  6
Continuous
 62
               7
100
AcDbLine
 10
-956.62167697482732
 20
-1265.9085581300128
 30
0.0
 11
-861.62167697482732
 21
-1265.9085581300128
 31
0.0
  0
LINE
  5
235
100
AcDbEntity
  8
一般
370
               5
  6
Continuous
 62
               7
100
AcDbLine
 10
-924.12167697482732
 20
-1290.9085581300128
 30
0.0
 11
-924.12167697482732
 21
-1270.9085581300128
 31
0.0
  0
LINE
  5
236
100
AcDbEntity
  8
一般
370
               5
  6
Continuous
 62
               7
100
AcDbLine
 10
-894.12167697482732
 20
-1290.9085581300128
 30
0.0
 11
-924.12167697482732
 21
-1290.9085581300128
 31
0.0
  0
LINE
  5
237
100
AcDbEntity
  8
一般
370
               5
  6
Continuous
 62
               7
100
AcDbLine
 10
-894.12167697482732
 20
-1270.9085581300128
 30
0.0
 11
-894.12167697482732
 21
-1290.9085581300128
 31
0.0
  0
LINE
  5
238
100
AcDbEntity
  8
一般
370
               5
  6
Continuous
 62
               7
100
AcDbLine
 10
-924.12167697482732
 20
-1270.9085581300128
 30
0.0
 11
-894.12167697482732
 21
-1270.9085581300128
 31
0.0
  0
LINE
  5
239
100
AcDbEntity
  8
一般
370
               5
  6
Continuous
 62
               7
100
AcDbLine
 10
-916.62167697482732
 20
-1284.4085581300128
 30
0.0
 11
-916.62167697482732
 21
-1277.4085581300128
 31
0.0
  0
LINE
  5
23A
100
AcDbEntity
  8
一般
370
               5
  6
Continuous
 62
               7
100
AcDbLine
 10
-914.12167697482732
 20
-1284.4085581300128
 30
0.0
 11
-916.62167697482732
 21
-1284.4085581300128
 31
0.0
  0
LINE
  5
23B
100
AcDbEntity
  8
一般
370
               5
  6
Continuous
 62
               7
100
AcDbLine
 10
-914.12167697482732
 20
-1277.4085581300128
 30
0.0
 11
-914.12167697482732
 21
-1284.4085581300128
 31
0.0
  0
LINE
  5
23C
100
AcDbEntity
  8
一般
370
               5
  6
Continuous
 62
               7
100
AcDbLine
 10
-916.62167697482732
 20
-1277.4085581300128
 30
0.0
 11
-914.12167697482732
 21
-1277.4085581300128
 31
0.0
  0
LINE
  5
23D
100
AcDbEntity
  8
一般
370
               5
  6
Continuous
 62
               7
100
AcDbLine
 10
-904.12167697482732
 20
-1284.4085581300128
 30
0.0
 11
-904.12167697482732
 21
-1277.4085581300128
 31
0.0
  0
LINE
  5
23E
100
AcDbEntity
  8
一般
370
               5
  6
Continuous
 62
               7
100
AcDbLine
 10
-901.62167697482732
 20
-1284.4085581300128
 30
0.0
 11
-904.12167697482732
 21
-1284.4085581300128
 31
0.0
  0
LINE
  5
23F
100
AcDbEntity
  8
一般
370
               5
  6
Continuous
 62
               7
100
AcDbLine
 10
-901.62167697482732
 20
-1277.4085581300128
 30
0.0
 11
-901.62167697482732
 21
-1284.4085581300128
 31
0.0
  0
LINE
  5
240
100
AcDbEntity
  8
一般
370
               5
  6
Continuous
 62
               7
100
AcDbLine
 10
-904.12167697482732
 20
-1277.4085581300128
 30
0.0
 11
-901.62167697482732
 21
-1277.4085581300128
 31
0.0
  0
LINE
  5
241
100
AcDbEntity
  8
一般
370
               5
  6
STYLE_06
 62
               7
100
AcDbLine
 10
-589.12167697482641
 20
-600.90855813001281
 30
0.0
 11
-149.12167697482641
 21
-915.90855813001281
 31
0.0
  0
LINE
  5
242
100
AcDbEntity
  8
一般
370
               5
  6
STYLE_06
 62
               7
100
AcDbLine
 10
-149.12167697482641
 20
-915.90855813001281
 30
0.0
 11
-589.12167697482641
 21
-1230.9085581300128
 31
0.0
  0
LINE
  5
243
100
AcDbEntity
  8
一般
370
               5
  6
Continuous
 62
               7
100
AcDbLine
 10
-601.35003837729244
 20
-847.05660842710779
 30
0.0
 11
-602.00035663126653
 21
-848.02987847357224
 31
0.0
  0
LINE
  5
244
100
AcDbEntity
  8
一般
370
               5
  6
Continuous
 62
               7
100
AcDbLine
 10
-601.12167697482641
 20
-845.90855813001247
 30
0.0
 11
-601.35003837729244
 21
-847.05660842710779
 31
0.0
  0
LINE
  5
245
100
AcDbEntity
  8
一般
370
               5
  6
Continuous
 62
               7
100
AcDbLine
 10
-601.35003837729266
 20
-844.76050783291726
 30
0.0
 11
-601.12167697482641
 21
-845.90855813001247
 31
0.0
  0
LINE
  5
246
100
AcDbEntity
  8
一般
370
               5
  6
Continuous
 62
               7
100
AcDbLine
 10
-602.00035663126698
 20
-843.78723778645292
 30
0.0
 11
-601.35003837729266
 21
-844.76050783291726
 31
0.0
  0
LINE
  5
247
100
AcDbEntity
  8
一般
370
               5
  6
Continuous
 62
               7
100
AcDbLine
 10
-602.97362667773143
 20
-843.13691953247883
 30
0.0
 11
-602.00035663126698
 21
-843.78723778645292
 31
0.0
  0
LINE
  5
248
100
AcDbEntity
  8
一般
370
               5
  6
Continuous
 62
               7
100
AcDbLine
 10
-604.12167697482676
 20
-842.90855813001281
 30
0.0
 11
-602.97362667773143
 21
-843.13691953247883
 31
0.0
  0
LINE
  5
249
100
AcDbEntity
  8
一般
370
               5
  6
Continuous
 62
               7
100
AcDbLine
 10
-605.26972727192197
 20
-843.13691953247906
 30
0.0
 11
-604.12167697482676
 21
-842.90855813001281
 31
0.0
  0
LINE
  5
24A
100
AcDbEntity
  8
一般
370
               5
  6
Continuous
 62
               7
100
AcDbLine
 10
-606.2429973183863
 20
-843.78723778645337
 30
0.0
 11
-605.26972727192197
 21
-843.13691953247906
 31
0.0
  0
LINE
  5
24B
100
AcDbEntity
  8
一般
370
               5
  6
Continuous
 62
               7
100
AcDbLine
 10
-606.89331557236039
 20
-844.76050783291782
 30
0.0
 11
-606.2429973183863
 21
-843.78723778645337
 31
0.0
  0
LINE
  5
24C
100
AcDbEntity
  8
一般
370
               5
  6
Continuous
 62
               7
100
AcDbLine
 10
-607.12167697482641
 20
-845.90855813001315
 30
0.0
 11
-606.89331557236039
 21
-844.76050783291782
 31
0.0
  0
LINE
  5
24D
100
AcDbEntity
  8
一般
370
               5
  6
Continuous
 62
               7
100
AcDbLine
 10
-606.89331557236017
 20
-847.05660842710836
 30
0.0
 11
-607.12167697482641
 21
-845.90855813001315
 31
0.0
  0
LINE
  5
24E
100
AcDbEntity
  8
一般
370
               5
  6
Continuous
 62
               7
100
AcDbLine
 10
-606.24299731838585
 20
-848.02987847357269
 30
0.0
 11
-606.89331557236017
 21
-847.05660842710836
 31
0.0
  0
LINE
  5
24F
100
AcDbEntity
  8
一般
370
               5
  6
Continuous
 62
               7
100
AcDbLine
 10
-605.2697272719214
 20
-848.68019672754679
 30
0.0
 11
-606.24299731838585
 21
-848.02987847357269
 31
0.0
  0
LINE
  5
250
100
AcDbEntity
  8
一般
370
               5
  6
Continuous
 62
               7
100
AcDbLine
 10
-604.12167697482607
 20
-848.90855813001281
 30
0.0
 11
-605.2697272719214
 21
-848.68019672754679
 31
0.0
  0
LINE
  5
251
100
AcDbEntity
  8
一般
370
               5
  6
Continuous
 62
               7
100
AcDbLine
 10
-602.97362667773086
 20
-848.68019672754656
 30
0.0
 11
-604.12167697482607
 21
-848.90855813001281
 31
0.0
  0
LINE
  5
252
100
AcDbEntity
  8
一般
370
               5
  6
Continuous
 62
               7
100
AcDbLine
 10
-602.00035663126653
 20
-848.02987847357224
 30
0.0
 11
-602.97362667773086
 21
-848.68019672754656
 31
0.0
  0
LINE
  5
253
100
AcDbEntity
  8
一般
370
               5
  6
Continuous
 62
               7
100
AcDbLine
 10
-601.35003837729244
 20
-1167.0566084271077
 30
0.0
 11
-602.00035663126653
 21
-1168.0298784735721
 31
0.0
  0
LINE
  5
254
100
AcDbEntity
  8
一般
370
               5
  6
Continuous
 62
               7
100
AcDbLine
 10
-601.12167697482641
 20
-1165.9085581300124
 30
0.0
 11
-601.35003837729244
 21
-1167.0566084271077
 31
0.0
  0
LINE
  5
255
100
AcDbEntity
  8
一般
370
               5
  6
Continuous
 62
               7
100
AcDbLine
 10
-601.35003837729278
 20
-1164.7605078329173
 30
0.0
 11
-601.12167697482641
 21
-1165.9085581300124
 31
0.0
  0
LINE
  5
256
100
AcDbEntity
  8
一般
370
               5
  6
Continuous
 62
               7
100
AcDbLine
 10
-602.0003566312671
 20
-1163.7872377864528
 30
0.0
 11
-601.35003837729278
 21
-1164.7605078329173
 31
0.0
  0
LINE
  5
257
100
AcDbEntity
  8
一般
370
               5
  6
Continuous
 62
               7
100
AcDbLine
 10
-602.97362667773154
 20
-1163.1369195324789
 30
0.0
 11
-602.0003566312671
 21
-1163.7872377864528
 31
0.0
  0
LINE
  5
258
100
AcDbEntity
  8
一般
370
               5
  6
Continuous
 62
               7
100
AcDbLine
 10
-604.12167697482687
 20
-1162.9085581300128
 30
0.0
 11
-602.97362667773154
 21
-1163.1369195324789
 31
0.0
  0
LINE
  5
259
100
AcDbEntity
  8
一般
370
               5
  6
Continuous
 62
               7
100
AcDbLine
 10
-605.26972727192208
 20
-1163.1369195324792
 30
0.0
 11
-604.12167697482687
 21
-1162.9085581300128
 31
0.0
  0
LINE
  5
25A
100
AcDbEntity
  8
一般
370
               5
  6
Continuous
 62
               7
100
AcDbLine
 10
-606.2429973183863
 20
-1163.7872377864535
 30
0.0
 11
-605.26972727192208
 21
-1163.1369195324792
 31
0.0
  0
LINE
  5
25B
100
AcDbEntity
  8
一般
370
               5
  6
Continuous
 62
               7
100
AcDbLine
 10
-606.89331557236039
 20
-1164.7605078329179
 30
0.0
 11
-606.2429973183863
 21
-1163.7872377864535
 31
0.0
  0
LINE
  5
25C
100
AcDbEntity
  8
一般
370
               5
  6
Continuous
 62
               7
100
AcDbLine
 10
-607.12167697482641
 20
-1165.9085581300133
 30
0.0
 11
-606.89331557236039
 21
-1164.7605078329179
 31
0.0
  0
LINE
  5
25D
100
AcDbEntity
  8
一般
370
               5
  6
Continuous
 62
               7
100
AcDbLine
 10
-606.89331557236005
 20
-1167.0566084271084
 30
0.0
 11
-607.12167697482641
 21
-1165.9085581300133
 31
0.0
  0
LINE
  5
25E
100
AcDbEntity
  8
一般
370
               5
  6
Continuous
 62
               7
100
AcDbLine
 10
-606.24299731838573
 20
-1168.0298784735728
 30
0.0
 11
-606.89331557236005
 21
-1167.0566084271084
 31
0.0
  0
LINE
  5
25F
100
AcDbEntity
  8
一般
370
               5
  6
Continuous
 62
               7
100
AcDbLine
 10
-605.26972727192128
 20
-1168.6801967275467
 30
0.0
 11
-606.24299731838573
 21
-1168.0298784735728
 31
0.0
  0
LINE
  5
260
100
AcDbEntity
  8
一般
370
               5
  6
Continuous
 62
               7
100
AcDbLine
 10
-604.12167697482596
 20
-1168.9085581300128
 30
0.0
 11
-605.26972727192128
 21
-1168.6801967275467
 31
0.0
  0
LINE
  5
261
100
AcDbEntity
  8
一般
370
               5
  6
Continuous
 62
               7
100
AcDbLine
 10
-602.97362667773075
 20
-1168.6801967275464
 30
0.0
 11
-604.12167697482596
 21
-1168.9085581300128
 31
0.0
  0
LINE
  5
262
100
AcDbEntity
  8
一般
370
               5
  6
Continuous
 62
               7
100
AcDbLine
 10
-602.00035663126653
 20
-1168.0298784735721
 30
0.0
 11
-602.97362667773075
 21
-1168.6801967275464
 31
0.0
  0
LINE
  5
263
100
AcDbEntity
  8
一般
370
               5
  6
Continuous
 62
               7
100
AcDbLine
 10
-603.06101680304664
 20
-846.96921830179281
 30
0.0
 11
-605.1823371466063
 21
-844.84789795823303
 31
0.0
  0
LINE
  5
264
100
AcDbEntity
  8
一般
370
               5
  6
Continuous
 62
               7
100
AcDbLine
 10
-603.06101680304664
 20
-844.84789795823303
 30
0.0
 11
-605.18233714660619
 21
-846.96921830179281
 31
0.0
  0
LINE
  5
265
100
AcDbEntity
  8
一般
370
               5
  6
Continuous
 62
               7
100
AcDbLine
 10
-603.06101680304664
 20
-1166.9692183017928
 30
0.0
 11
-605.1823371466063
 21
-1164.847897958233
 31
0.0
  0
LINE
  5
266
100
AcDbEntity
  8
一般
370
               5
  6
Continuous
 62
               7
100
AcDbLine
 10
-603.06101680304664
 20
-1164.847897958233
 30
0.0
 11
-605.18233714660619
 21
-1166.9692183017928
 31
0.0
  0
LINE
  5
267
100
AcDbEntity
  8
一般
370
               5
  6
Continuous
 62
               7
100
AcDbLine
 10
-1229.5022793122707
 20
-1167.8219752918376
 30
0.0
 11
-1230.5861430688942
 21
-1169.444092035945
 31
0.0
  0
LINE
  5
268
100
AcDbEntity
  8
一般
370
               5
  6
Continuous
 62
               7
100
AcDbLine
 10
-1229.1216769748276
 20
-1165.9085581300121
 30
0.0
 11
-1229.5022793122707
 21
-1167.8219752918376
 31
0.0
  0
LINE
  5
269
100
AcDbEntity
  8
一般
370
               5
  6
Continuous
 62
               7
100
AcDbLine
 10
-1229.5022793122712
 20
-1163.9951409681867
 30
0.0
 11
-1229.1216769748276
 21
-1165.9085581300121
 31
0.0
  0
LINE
  5
26A
100
AcDbEntity
  8
一般
370
               5
  6
Continuous
 62
               7
100
AcDbLine
 10
-1230.5861430688951
 20
-1162.3730242240797
 30
0.0
 11
-1229.5022793122712
 21
-1163.9951409681867
 31
0.0
  0
LINE
  5
26B
100
AcDbEntity
  8
一般
370
               5
  6
Continuous
 62
               7
100
AcDbLine
 10
-1232.2082598130025
 20
-1161.2891604674562
 30
0.0
 11
-1230.5861430688951
 21
-1162.3730242240797
 31
0.0
  0
LINE
  5
26C
100
AcDbEntity
  8
一般
370
               5
  6
Continuous
 62
               7
100
AcDbLine
 10
-1234.121676974828
 20
-1160.908558130013
 30
0.0
 11
-1232.2082598130025
 21
-1161.2891604674562
 31
0.0
  0
LINE
  5
26D
100
AcDbEntity
  8
一般
370
               5
  6
Continuous
 62
               7
100
AcDbLine
 10
-1236.0350941366535
 20
-1161.2891604674567
 30
0.0
 11
-1234.121676974828
 21
-1160.908558130013
 31
0.0
  0
LINE
  5
26E
100
AcDbEntity
  8
一般
370
               5
  6
Continuous
 62
               7
100
AcDbLine
 10
-1237.6572108807604
 20
-1162.3730242240806
 30
0.0
 11
-1236.0350941366535
 21
-1161.2891604674567
 31
0.0
  0
LINE
  5
26F
100
AcDbEntity
  8
一般
370
               5
  6
Continuous
 62
               7
100
AcDbLine
 10
-1238.7410746373839
 20
-1163.995140968188
 30
0.0
 11
-1237.6572108807604
 21
-1162.3730242240806
 31
0.0
  0
LINE
  5
270
100
AcDbEntity
  8
一般
370
               5
  6
Continuous
 62
               7
100
AcDbLine
 10
-1239.1216769748271
 20
-1165.9085581300135
 30
0.0
 11
-1238.7410746373839
 21
-1163.995140968188
 31
0.0
  0
LINE
  5
271
100
AcDbEntity
  8
一般
370
               5
  6
Continuous
 62
               7
100
AcDbLine
 10
-1238.7410746373835
 20
-1167.821975291839
 30
0.0
 11
-1239.1216769748271
 21
-1165.9085581300135
 31
0.0
  0
LINE
  5
272
100
AcDbEntity
  8
一般
370
               5
  6
Continuous
 62
               7
100
AcDbLine
 10
-1237.6572108807595
 20
-1169.4440920359459
 30
0.0
 11
-1238.7410746373835
 21
-1167.821975291839
 31
0.0
  0
LINE
  5
273
100
AcDbEntity
  8
一般
370
               5
  6
Continuous
 62
               7
100
AcDbLine
 10
-1236.0350941366521
 20
-1170.5279557925694
 30
0.0
 11
-1237.6572108807595
 21
-1169.4440920359459
 31
0.0
  0
LINE
  5
274
100
AcDbEntity
  8
一般
370
               5
  6
Continuous
 62
               7
100
AcDbLine
 10
-1234.1216769748266
 20
-1170.9085581300126
 30
0.0
 11
-1236.0350941366521
 21
-1170.5279557925694
 31
0.0
  0
LINE
  5
275
100
AcDbEntity
  8
一般
370
               5
  6
Continuous
 62
               7
100
AcDbLine
 10
-1232.2082598130012
 20
-1170.5279557925689
 30
0.0
 11
-1234.1216769748266
 21
-1170.9085581300126
 31
0.0
  0
LINE
  5
276
100
AcDbEntity
  8
一般
370
               5
  6
Continuous
 62
               7
100
AcDbLine
 10
-1230.5861430688942
 20
-1169.444092035945
 30
0.0
 11
-1232.2082598130012
 21
-1170.5279557925689
 31
0.0
  0
LINE
  5
277
100
AcDbEntity
  8
一般
370
               5
  6
Continuous
 62
               7
100
AcDbLine
 10
-1229.5022793122707
 20
-847.8219752918377
 30
0.0
 11
-1230.5861430688942
 21
-849.44409203594512
 31
0.0
  0
LINE
  5
278
100
AcDbEntity
  8
一般
370
               5
  6
Continuous
 62
               7
100
AcDbLine
 10
-1229.1216769748273
 20
-845.90855813001224
 30
0.0
 11
-1229.5022793122707
 21
-847.8219752918377
 31
0.0
  0
LINE
  5
279
100
AcDbEntity
  8
一般
370
               5
  6
Continuous
 62
               7
100
AcDbLine
 10
-1229.5022793122712
 20
-843.99514096818689
 30
0.0
 11
-1229.1216769748273
 21
-845.90855813001224
 31
0.0
  0
LINE
  5
27A
100
AcDbEntity
  8
一般
370
               5
  6
Continuous
 62
               7
100
AcDbLine
 10
-1230.5861430688951
 20
-842.3730242240797
 30
0.0
 11
-1229.5022793122712
 21
-843.99514096818689
 31
0.0
  0
LINE
  5
27B
100
AcDbEntity
  8
一般
370
               5
  6
Continuous
 62
               7
100
AcDbLine
 10
-1232.2082598130023
 20
-841.28916046745621
 30
0.0
 11
-1230.5861430688951
 21
-842.3730242240797
 31
0.0
  0
LINE
  5
27C
100
AcDbEntity
  8
一般
370
               5
  6
Continuous
 62
               7
100
AcDbLine
 10
-1234.1216769748278
 20
-840.90855813001281
 30
0.0
 11
-1232.2082598130023
 21
-841.28916046745621
 31
0.0
  0
LINE
  5
27D
100
AcDbEntity
  8
一般
370
               5
  6
Continuous
 62
               7
100
AcDbLine
 10
-1236.0350941366532
 20
-841.28916046745667
 30
0.0
 11
-1234.1216769748278
 21
-840.90855813001281
 31
0.0
  0
LINE
  5
27E
100
AcDbEntity
  8
一般
370
               5
  6
Continuous
 62
               7
100
AcDbLine
 10
-1237.6572108807604
 20
-842.3730242240805
 30
0.0
 11
-1236.0350941366532
 21
-841.28916046745667
 31
0.0
  0
LINE
  5
27F
100
AcDbEntity
  8
一般
370
               5
  6
Continuous
 62
               7
100
AcDbLine
 10
-1238.7410746373839
 20
-843.99514096818791
 30
0.0
 11
-1237.6572108807604
 21
-842.3730242240805
 31
0.0
  0
LINE
  5
280
100
AcDbEntity
  8
一般
370
               5
  6
Continuous
 62
               7
100
AcDbLine
 10
-1239.1216769748273
 20
-845.90855813001338
 30
0.0
 11
-1238.7410746373839
 21
-843.99514096818791
 31
0.0
  0
LINE
  5
281
100
AcDbEntity
  8
一般
370
               5
  6
Continuous
 62
               7
100
AcDbLine
 10
-1238.7410746373835
 20
-847.82197529183873
 30
0.0
 11
-1239.1216769748273
 21
-845.90855813001338
 31
0.0
  0
LINE
  5
282
100
AcDbEntity
  8
一般
370
               5
  6
Continuous
 62
               7
100
AcDbLine
 10
-1237.6572108807595
 20
-849.44409203594591
 30
0.0
 11
-1238.7410746373835
 21
-847.82197529183873
 31
0.0
  0
LINE
  5
283
100
AcDbEntity
  8
一般
370
               5
  6
Continuous
 62
               7
100
AcDbLine
 10
-1236.0350941366523
 20
-850.5279557925694
 30
0.0
 11
-1237.6572108807595
 21
-849.44409203594591
 31
0.0
  0
LINE
  5
284
100
AcDbEntity
  8
一般
370
               5
  6
Continuous
 62
               7
100
AcDbLine
 10
-1234.1216769748269
 20
-850.90855813001281
 30
0.0
 11
-1236.0350941366523
 21
-850.5279557925694
 31
0.0
  0
LINE
  5
285
100
AcDbEntity
  8
一般
370
               5
  6
Continuous
 62
               7
100
AcDbLine
 10
-1232.2082598130014
 20
-850.52795579256895
 30
0.0
 11
-1234.1216769748269
 21
-850.90855813001281
 31
0.0
  0
LINE
  5
286
100
AcDbEntity
  8
一般
370
               5
  6
Continuous
 62
               7
100
AcDbLine
 10
-1230.5861430688942
 20
-849.44409203594512
 30
0.0
 11
-1232.2082598130014
 21
-850.52795579256895
 31
0.0
  0
LINE
  5
287
100
AcDbEntity
  8
一般
370
               5
  6
Continuous
 62
               7
100
AcDbLine
 10
-1231.3500383772935
 20
-847.05660842710779
 30
0.0
 11
-1232.0003566312676
 21
-848.02987847357213
 31
0.0
  0
LINE
  5
288
100
AcDbEntity
  8
一般
370
               5
  6
Continuous
 62
               7
100
AcDbLine
 10
-1231.1216769748273
 20
-845.90855813001247
 30
0.0
 11
-1231.3500383772935
 21
-847.05660842710779
 31
0.0
  0
LINE
  5
289
100
AcDbEntity
  8
一般
370
               5
  6
Continuous
 62
               7
100
AcDbLine
 10
-1231.3500383772937
 20
-844.76050783291726
 30
0.0
 11
-1231.1216769748273
 21
-845.90855813001247
 31
0.0
  0
LINE
  5
28A
100
AcDbEntity
  8
一般
370
               5
  6
Continuous
 62
               7
100
AcDbLine
 10
-1232.000356631268
 20
-843.78723778645303
 30
0.0
 11
-1231.3500383772937
 21
-844.76050783291726
 31
0.0
  0
LINE
  5
28B
100
AcDbEntity
  8
一般
370
               5
  6
Continuous
 62
               7
100
AcDbLine
 10
-1232.9736266777325
 20
-843.13691953247883
 30
0.0
 11
-1232.000356631268
 21
-843.78723778645303
 31
0.0
  0
LINE
  5
28C
100
AcDbEntity
  8
一般
370
               5
  6
Continuous
 62
               7
100
AcDbLine
 10
-1234.1216769748276
 20
-842.90855813001281
 30
0.0
 11
-1232.9736266777325
 21
-843.13691953247883
 31
0.0
  0
LINE
  5
28D
100
AcDbEntity
  8
一般
370
               5
  6
Continuous
 62
               7
100
AcDbLine
 10
-1235.2697272719229
 20
-843.13691953247917
 30
0.0
 11
-1234.1216769748276
 21
-842.90855813001281
 31
0.0
  0
LINE
  5
28E
100
AcDbEntity
  8
一般
370
               5
  6
Continuous
 62
               7
100
AcDbLine
 10
-1236.2429973183871
 20
-843.78723778645349
 30
0.0
 11
-1235.2697272719229
 21
-843.13691953247917
 31
0.0
  0
LINE
  5
28F
100
AcDbEntity
  8
一般
370
               5
  6
Continuous
 62
               7
100
AcDbLine
 10
-1236.8933155723612
 20
-844.76050783291782
 30
0.0
 11
-1236.2429973183871
 21
-843.78723778645349
 31
0.0
  0
LINE
  5
290
100
AcDbEntity
  8
一般
370
               5
  6
Continuous
 62
               7
100
AcDbLine
 10
-1237.1216769748273
 20
-845.90855813001315
 30
0.0
 11
-1236.8933155723612
 21
-844.76050783291782
 31
0.0
  0
LINE
  5
291
100
AcDbEntity
  8
一般
370
               5
  6
Continuous
 62
               7
100
AcDbLine
 10
-1236.893315572361
 20
-847.05660842710836
 30
0.0
 11
-1237.1216769748273
 21
-845.90855813001315
 31
0.0
  0
LINE
  5
292
100
AcDbEntity
  8
一般
370
               5
  6
Continuous
 62
               7
100
AcDbLine
 10
-1236.2429973183866
 20
-848.02987847357258
 30
0.0
 11
-1236.893315572361
 21
-847.05660842710836
 31
0.0
  0
LINE
  5
293
100
AcDbEntity
  8
一般
370
               5
  6
Continuous
 62
               7
100
AcDbLine
 10
-1235.2697272719222
 20
-848.68019672754679
 30
0.0
 11
-1236.2429973183866
 21
-848.02987847357258
 31
0.0
  0
LINE
  5
294
100
AcDbEntity
  8
一般
370
               5
  6
Continuous
 62
               7
100
AcDbLine
 10
-1234.1216769748271
 20
-848.90855813001281
 30
0.0
 11
-1235.2697272719222
 21
-848.68019672754679
 31
0.0
  0
LINE
  5
295
100
AcDbEntity
  8
一般
370
               5
  6
Continuous
 62
               7
100
AcDbLine
 10
-1232.9736266777318
 20
-848.68019672754644
 30
0.0
 11
-1234.1216769748271
 21
-848.90855813001281
 31
0.0
  0
LINE
  5
296
100
AcDbEntity
  8
一般
370
               5
  6
Continuous
 62
               7
100
AcDbLine
 10
-1232.0003566312676
 20
-848.02987847357213
 30
0.0
 11
-1232.9736266777318
 21
-848.68019672754644
 31
0.0
  0
LINE
  5
297
100
AcDbEntity
  8
一般
370
               5
  6
Continuous
 62
               7
100
AcDbLine
 10
-1231.3500383772935
 20
-1167.0566084271077
 30
0.0
 11
-1232.0003566312676
 21
-1168.0298784735721
 31
0.0
  0
LINE
  5
298
100
AcDbEntity
  8
一般
370
               5
  6
Continuous
 62
               7
100
AcDbLine
 10
-1231.1216769748276
 20
-1165.9085581300124
 30
0.0
 11
-1231.3500383772935
 21
-1167.0566084271077
 31
0.0
  0
LINE
  5
299
100
AcDbEntity
  8
一般
370
               5
  6
Continuous
 62
               7
100
AcDbLine
 10
-1231.3500383772937
 20
-1164.7605078329173
 30
0.0
 11
-1231.1216769748276
 21
-1165.9085581300124
 31
0.0
  0
LINE
  5
29A
100
AcDbEntity
  8
一般
370
               5
  6
Continuous
 62
               7
100
AcDbLine
 10
-1232.000356631268
 20
-1163.787237786453
 30
0.0
 11
-1231.3500383772937
 21
-1164.7605078329173
 31
0.0
  0
LINE
  5
29B
100
AcDbEntity
  8
一般
370
               5
  6
Continuous
 62
               7
100
AcDbLine
 10
-1232.9736266777325
 20
-1163.1369195324789
 30
0.0
 11
-1232.000356631268
 21
-1163.787237786453
 31
0.0
  0
LINE
  5
29C
100
AcDbEntity
  8
一般
370
               5
  6
Continuous
 62
               7
100
AcDbLine
 10
-1234.1216769748278
 20
-1162.908558130013
 30
0.0
 11
-1232.9736266777325
 21
-1163.1369195324789
 31
0.0
  0
LINE
  5
29D
100
AcDbEntity
  8
一般
370
               5
  6
Continuous
 62
               7
100
AcDbLine
 10
-1235.2697272719229
 20
-1163.1369195324792
 30
0.0
 11
-1234.1216769748278
 21
-1162.908558130013
 31
0.0
  0
LINE
  5
29E
100
AcDbEntity
  8
一般
370
               5
  6
Continuous
 62
               7
100
AcDbLine
 10
-1236.2429973183871
 20
-1163.7872377864535
 30
0.0
 11
-1235.2697272719229
 21
-1163.1369195324792
 31
0.0
  0
LINE
  5
29F
100
AcDbEntity
  8
一般
370
               5
  6
Continuous
 62
               7
100
AcDbLine
 10
-1236.8933155723612
 20
-1164.7605078329179
 30
0.0
 11
-1236.2429973183871
 21
-1163.7872377864535
 31
0.0
  0
LINE
  5
2A0
100
AcDbEntity
  8
一般
370
               5
  6
Continuous
 62
               7
100
AcDbLine
 10
-1237.1216769748271
 20
-1165.9085581300133
 30
0.0
 11
-1236.8933155723612
 21
-1164.7605078329179
 31
0.0
  0
LINE
  5
2A1
100
AcDbEntity
  8
一般
370
               5
  6
Continuous
 62
               7
100
AcDbLine
 10
-1236.893315572361
 20
-1167.0566084271084
 30
0.0
 11
-1237.1216769748271
 21
-1165.9085581300133
 31
0.0
  0
LINE
  5
2A2
100
AcDbEntity
  8
一般
370
               5
  6
Continuous
 62
               7
100
AcDbLine
 10
-1236.2429973183866
 20
-1168.0298784735726
 30
0.0
 11
-1236.893315572361
 21
-1167.0566084271084
 31
0.0
  0
LINE
  5
2A3
100
AcDbEntity
  8
一般
370
               5
  6
Continuous
 62
               7
100
AcDbLine
 10
-1235.2697272719222
 20
-1168.6801967275467
 30
0.0
 11
-1236.2429973183866
 21
-1168.0298784735726
 31
0.0
  0
LINE
  5
2A4
100
AcDbEntity
  8
一般
370
               5
  6
Continuous
 62
               7
100
AcDbLine
 10
-1234.1216769748269
 20
-1168.9085581300126
 30
0.0
 11
-1235.2697272719222
 21
-1168.6801967275467
 31
0.0
  0
LINE
  5
2A5
100
AcDbEntity
  8
一般
370
               5
  6
Continuous
 62
               7
100
AcDbLine
 10
-1232.9736266777318
 20
-1168.6801967275464
 30
0.0
 11
-1234.1216769748269
 21
-1168.9085581300126
 31
0.0
  0
LINE
  5
2A6
100
AcDbEntity
  8
一般
370
               5
  6
Continuous
 62
               7
100
AcDbLine
 10
-1232.0003566312676
 20
-1168.0298784735721
 30
0.0
 11
-1232.9736266777318
 21
-1168.6801967275464
 31
0.0
  0
LINE
  5
2A7
100
AcDbEntity
  8
一般
370
               5
  6
Continuous
 62
               7
100
AcDbLine
 10
-1233.0610168030476
 20
-846.96921830179281
 30
0.0
 11
-1235.1823371466071
 21
-844.84789795823303
 31
0.0
  0
LINE
  5
2A8
100
AcDbEntity
  8
一般
370
               5
  6
Continuous
 62
               7
100
AcDbLine
 10
-1233.0610168030476
 20
-844.84789795823303
 30
0.0
 11
-1235.1823371466071
 21
-846.96921830179281
 31
0.0
  0
LINE
  5
2A9
100
AcDbEntity
  8
一般
370
               5
  6
Continuous
 62
               7
100
AcDbLine
 10
-1233.0610168030476
 20
-1166.9692183017928
 30
0.0
 11
-1235.1823371466071
 21
-1164.847897958233
 31
0.0
  0
LINE
  5
2AA
100
AcDbEntity
  8
一般
370
               5
  6
Continuous
 62
               7
100
AcDbLine
 10
-1233.0610168030476
 20
-1164.847897958233
 30
0.0
 11
-1235.1823371466071
 21
-1166.9692183017928
 31
0.0
  0
LINE
  5
2AB
100
AcDbEntity
  8
一般
370
               5
  6
Continuous
 62
               7
100
AcDbLine
 10
-483.62167697482641
 20
-513.90855813001292
 30
0.0
 11
-483.62167697482641
 21
-557.90855813001292
 31
0.0
  0
LINE
  5
2AC
100
AcDbEntity
  8
一般
370
               5
  6
Continuous
 62
               7
100
AcDbLine
 10
-483.63612279480981
 20
-513.61450670902423
 30
0.0
 11
-483.62167697482641
 21
-513.90855813001292
 31
0.0
  0
LINE
  5
2AD
100
AcDbEntity
  8
一般
370
               5
  6
Continuous
 62
               7
100
AcDbLine
 10
-483.67932113361672
 20
-513.32328716396455
 30
0.0
 11
-483.63612279480981
 21
-513.61450670902423
 31
0.0
  0
LINE
  5
2AE
100
AcDbEntity
  8
一般
370
               5
  6
Continuous
 62
               7
100
AcDbLine
 10
-483.75085596762978
 20
-513.03770409824949
 30
0.0
 11
-483.67932113361672
 21
-513.32328716396455
 31
0.0
  0
LINE
  5
2AF
100
AcDbEntity
  8
一般
370
               5
  6
Continuous
 62
               7
100
AcDbLine
 10
-483.85003837729255
 20
-512.7605078329176
 30
0.0
 11
-483.75085596762978
 21
-513.03770409824949
 31
0.0
  0
LINE
  5
2B0
100
AcDbEntity
  8
一般
370
               5
  6
Continuous
 62
               7
100
AcDbLine
 10
-483.97591318178132
 20
-512.49436791953497
 30
0.0
 11
-483.85003837729255
 21
-512.7605078329176
 31
0.0
  0
LINE
  5
2B1
100
AcDbEntity
  8
一般
370
               5
  6
Continuous
 62
               7
100
AcDbLine
 10
-484.1272681379188
 20
-512.24184743095407
 30
0.0
 11
-483.97591318178132
 21
-512.49436791953497
 31
0.0
  0
LINE
  5
2B2
100
AcDbEntity
  8
一般
370
               5
  6
Continuous
 62
               7
100
AcDbLine
 10
-484.3026456147382
 20
-512.00537827752203
 30
0.0
 11
-484.1272681379188
 21
-512.24184743095407
 31
0.0
  0
LINE
  5
2B3
100
AcDbEntity
  8
一般
370
               5
  6
Continuous
 62
               7
100
AcDbLine
 10
-484.50035663126675
 20
-511.78723778645326
 30
0.0
 11
-484.3026456147382
 21
-512.00537827752203
 31
0.0
  0
LINE
  5
2B4
100
AcDbEntity
  8
一般
370
               5
  6
Continuous
 62
               7
100
AcDbLine
 10
-484.71849712233546
 20
-511.5895267699247
 30
0.0
 11
-484.50035663126675
 21
-511.78723778645326
 31
0.0
  0
LINE
  5
2B5
100
AcDbEntity
  8
一般
370
               5
  6
Continuous
 62
               7
100
AcDbLine
 10
-484.95496627576762
 20
-511.41414929310531
 30
0.0
 11
-484.71849712233546
 21
-511.5895267699247
 31
0.0
  0
LINE
  5
2B6
100
AcDbEntity
  8
一般
370
               5
  6
Continuous
 62
               7
100
AcDbLine
 10
-485.2074867643484
 20
-511.26279433696783
 30
0.0
 11
-484.95496627576762
 21
-511.41414929310531
 31
0.0
  0
LINE
  5
2B7
100
AcDbEntity
  8
一般
370
               5
  6
Continuous
 62
               7
100
AcDbLine
 10
-485.47362667773115
 20
-511.13691953247906
 30
0.0
 11
-485.2074867643484
 21
-511.26279433696783
 31
0.0
  0
LINE
  5
2B8
100
AcDbEntity
  8
一般
370
               5
  6
Continuous
 62
               7
100
AcDbLine
 10
-485.75082294306304
 20
-511.03773712281628
 30
0.0
 11
-485.47362667773115
 21
-511.13691953247906
 31
0.0
  0
LINE
  5
2B9
100
AcDbEntity
  8
一般
370
               5
  6
Continuous
 62
               7
100
AcDbLine
 10
-486.03640600877804
 20
-510.96620228880323
 30
0.0
 11
-485.75082294306304
 21
-511.03773712281628
 31
0.0
  0
LINE
  5
2BA
100
AcDbEntity
  8
一般
370
               5
  6
Continuous
 62
               7
100
AcDbLine
 10
-486.32762555383772
 20
-510.92300394999631
 30
0.0
 11
-486.03640600877804
 21
-510.96620228880323
 31
0.0
  0
LINE
  5
2BB
100
AcDbEntity
  8
一般
370
               5
  6
Continuous
 62
               7
100
AcDbLine
 10
-486.62167697482641
 20
-510.90855813001292
 30
0.0
 11
-486.32762555383772
 21
-510.92300394999631
 31
0.0
  0
LINE
  5
2BC
100
AcDbEntity
  8
一般
370
               5
  6
Continuous
 62
               7
100
AcDbLine
 10
-486.91572839581511
 20
-510.92300394999631
 30
0.0
 11
-486.62167697482641
 21
-510.90855813001292
 31
0.0
  0
LINE
  5
2BD
100
AcDbEntity
  8
一般
370
               5
  6
Continuous
 62
               7
100
AcDbLine
 10
-487.20694794087478
 20
-510.96620228880323
 30
0.0
 11
-486.91572839581511
 21
-510.92300394999631
 31
0.0
  0
LINE
  5
2BE
100
AcDbEntity
  8
一般
370
               5
  6
Continuous
 62
               7
100
AcDbLine
 10
-487.49253100658979
 20
-511.03773712281628
 30
0.0
 11
-487.20694794087478
 21
-510.96620228880323
 31
0.0
  0
LINE
  5
2BF
100
AcDbEntity
  8
一般
370
               5
  6
Continuous
 62
               7
100
AcDbLine
 10
-487.76972727192168
 20
-511.13691953247906
 30
0.0
 11
-487.49253100658979
 21
-511.03773712281628
 31
0.0
  0
LINE
  5
2C0
100
AcDbEntity
  8
一般
370
               5
  6
Continuous
 62
               7
100
AcDbLine
 10
-488.03586718530443
 20
-511.26279433696783
 30
0.0
 11
-487.76972727192168
 21
-511.13691953247906
 31
0.0
  0
LINE
  5
2C1
100
AcDbEntity
  8
一般
370
               5
  6
Continuous
 62
               7
100
AcDbLine
 10
-488.28838767388521
 20
-511.41414929310531
 30
0.0
 11
-488.03586718530443
 21
-511.26279433696783
 31
0.0
  0
LINE
  5
2C2
100
AcDbEntity
  8
一般
370
               5
  6
Continuous
 62
               7
100
AcDbLine
 10
-488.52485682731736
 20
-511.5895267699247
 30
0.0
 11
-488.28838767388521
 21
-511.41414929310531
 31
0.0
  0
LINE
  5
2C3
100
AcDbEntity
  8
一般
370
               5
  6
Continuous
 62
               7
100
AcDbLine
 10
-488.74299731838607
 20
-511.78723778645326
 30
0.0
 11
-488.52485682731736
 21
-511.5895267699247
 31
0.0
  0
LINE
  5
2C4
100
AcDbEntity
  8
一般
370
               5
  6
Continuous
 62
               7
100
AcDbLine
 10
-488.94070833491463
 20
-512.00537827752203
 30
0.0
 11
-488.74299731838607
 21
-511.78723778645326
 31
0.0
  0
LINE
  5
2C5
100
AcDbEntity
  8
一般
370
               5
  6
Continuous
 62
               7
100
AcDbLine
 10
-489.11608581173402
 20
-512.24184743095407
 30
0.0
 11
-488.94070833491463
 21
-512.00537827752203
 31
0.0
  0
LINE
  5
2C6
100
AcDbEntity
  8
一般
370
               5
  6
Continuous
 62
               7
100
AcDbLine
 10
-489.26744076787151
 20
-512.49436791953497
 30
0.0
 11
-489.11608581173402
 21
-512.24184743095407
 31
0.0
  0
LINE
  5
2C7
100
AcDbEntity
  8
一般
370
               5
  6
Continuous
 62
               7
100
AcDbLine
 10
-489.39331557236028
 20
-512.7605078329176
 30
0.0
 11
-489.26744076787151
 21
-512.49436791953497
 31
0.0
  0
LINE
  5
2C8
100
AcDbEntity
  8
一般
370
               5
  6
Continuous
 62
               7
100
AcDbLine
 10
-489.49249798202305
 20
-513.03770409824949
 30
0.0
 11
-489.39331557236028
 21
-512.7605078329176
 31
0.0
  0
LINE
  5
2C9
100
AcDbEntity
  8
一般
370
               5
  6
Continuous
 62
               7
100
AcDbLine
 10
-489.5640328160361
 20
-513.32328716396455
 30
0.0
 11
-489.49249798202305
 21
-513.03770409824949
 31
0.0
  0
LINE
  5
2CA
100
AcDbEntity
  8
一般
370
               5
  6
Continuous
 62
               7
100
AcDbLine
 10
-489.60723115484302
 20
-513.61450670902423
 30
0.0
 11
-489.5640328160361
 21
-513.32328716396455
 31
0.0
  0
LINE
  5
2CB
100
AcDbEntity
  8
一般
370
               5
  6
Continuous
 62
               7
100
AcDbLine
 10
-489.62167697482641
 20
-513.90855813001292
 30
0.0
 11
-489.60723115484302
 21
-513.61450670902423
 31
0.0
  0
LINE
  5
2CC
100
AcDbEntity
  8
一般
370
               5
  6
Continuous
 62
               7
100
AcDbLine
 10
-489.62167697482641
 20
-557.90855813001292
 30
0.0
 11
-489.62167697482641
 21
-513.90855813001292
 31
0.0
  0
LINE
  5
2CD
100
AcDbEntity
  8
一般
370
               5
  6
Continuous
 62
               7
100
AcDbLine
 10
-489.60723115484302
 20
-558.20260955100161
 30
0.0
 11
-489.62167697482641
 21
-557.90855813001292
 31
0.0
  0
LINE
  5
2CE
100
AcDbEntity
  8
一般
370
               5
  6
Continuous
 62
               7
100
AcDbLine
 10
-489.5640328160361
 20
-558.49382909606129
 30
0.0
 11
-489.60723115484302
 21
-558.20260955100161
 31
0.0
  0
LINE
  5
2CF
100
AcDbEntity
  8
一般
370
               5
  6
Continuous
 62
               7
100
AcDbLine
 10
-489.49249798202305
 20
-558.77941216177635
 30
0.0
 11
-489.5640328160361
 21
-558.49382909606129
 31
0.0
  0
LINE
  5
2D0
100
AcDbEntity
  8
一般
370
               5
  6
Continuous
 62
               7
100
AcDbLine
 10
-489.39331557236028
 20
-559.05660842710824
 30
0.0
 11
-489.49249798202305
 21
-558.77941216177635
 31
0.0
  0
LINE
  5
2D1
100
AcDbEntity
  8
一般
370
               5
  6
Continuous
 62
               7
100
AcDbLine
 10
-489.26744076787151
 20
-559.32274834049088
 30
0.0
 11
-489.39331557236028
 21
-559.05660842710824
 31
0.0
  0
LINE
  5
2D2
100
AcDbEntity
  8
一般
370
               5
  6
Continuous
 62
               7
100
AcDbLine
 10
-489.11608581173402
 20
-559.57526882907177
 30
0.0
 11
-489.26744076787151
 21
-559.32274834049088
 31
0.0
  0
LINE
  5
2D3
100
AcDbEntity
  8
一般
370
               5
  6
Continuous
 62
               7
100
AcDbLine
 10
-488.94070833491463
 20
-559.81173798250381
 30
0.0
 11
-489.11608581173402
 21
-559.57526882907177
 31
0.0
  0
LINE
  5
2D4
100
AcDbEntity
  8
一般
370
               5
  6
Continuous
 62
               7
100
AcDbLine
 10
-488.74299731838607
 20
-560.02987847357258
 30
0.0
 11
-488.94070833491463
 21
-559.81173798250381
 31
0.0
  0
LINE
  5
2D5
100
AcDbEntity
  8
一般
370
               5
  6
Continuous
 62
               7
100
AcDbLine
 10
-488.52485682731736
 20
-560.22758949010108
 30
0.0
 11
-488.74299731838607
 21
-560.02987847357258
 31
0.0
  0
LINE
  5
2D6
100
AcDbEntity
  8
一般
370
               5
  6
Continuous
 62
               7
100
AcDbLine
 10
-488.28838767388521
 20
-560.40296696692053
 30
0.0
 11
-488.52485682731736
 21
-560.22758949010108
 31
0.0
  0
LINE
  5
2D7
100
AcDbEntity
  8
一般
370
               5
  6
Continuous
 62
               7
100
AcDbLine
 10
-488.03586718530443
 20
-560.55432192305796
 30
0.0
 11
-488.28838767388521
 21
-560.40296696692053
 31
0.0
  0
LINE
  5
2D8
100
AcDbEntity
  8
一般
370
               5
  6
Continuous
 62
               7
100
AcDbLine
 10
-487.76972727192168
 20
-560.68019672754679
 30
0.0
 11
-488.03586718530443
 21
-560.55432192305796
 31
0.0
  0
LINE
  5
2D9
100
AcDbEntity
  8
一般
370
               5
  6
Continuous
 62
               7
100
AcDbLine
 10
-487.49253100658979
 20
-560.7793791372095
 30
0.0
 11
-487.76972727192168
 21
-560.68019672754679
 31
0.0
  0
LINE
  5
2DA
100
AcDbEntity
  8
一般
370
               5
  6
Continuous
 62
               7
100
AcDbLine
 10
-487.20694794087478
 20
-560.85091397122267
 30
0.0
 11
-487.49253100658979
 21
-560.7793791372095
 31
0.0
  0
LINE
  5
2DB
100
AcDbEntity
  8
一般
370
               5
  6
Continuous
 62
               7
100
AcDbLine
 10
-486.91572839581511
 20
-560.89411231002953
 30
0.0
 11
-487.20694794087478
 21
-560.85091397122267
 31
0.0
  0
LINE
  5
2DC
100
AcDbEntity
  8
一般
370
               5
  6
Continuous
 62
               7
100
AcDbLine
 10
-486.62167697482641
 20
-560.90855813001292
 30
0.0
 11
-486.91572839581511
 21
-560.89411231002953
 31
0.0
  0
LINE
  5
2DD
100
AcDbEntity
  8
一般
370
               5
  6
Continuous
 62
               7
100
AcDbLine
 10
-486.32762555383772
 20
-560.89411231002953
 30
0.0
 11
-486.62167697482641
 21
-560.90855813001292
 31
0.0
  0
LINE
  5
2DE
100
AcDbEntity
  8
一般
370
               5
  6
Continuous
 62
               7
100
AcDbLine
 10
-486.03640600877804
 20
-560.85091397122267
 30
0.0
 11
-486.32762555383772
 21
-560.89411231002953
 31
0.0
  0
LINE
  5
2DF
100
AcDbEntity
  8
一般
370
               5
  6
Continuous
 62
               7
100
AcDbLine
 10
-485.75082294306304
 20
-560.7793791372095
 30
0.0
 11
-486.03640600877804
 21
-560.85091397122267
 31
0.0
  0
LINE
  5
2E0
100
AcDbEntity
  8
一般
370
               5
  6
Continuous
 62
               7
100
AcDbLine
 10
-485.47362667773115
 20
-560.68019672754679
 30
0.0
 11
-485.75082294306304
 21
-560.7793791372095
 31
0.0
  0
LINE
  5
2E1
100
AcDbEntity
  8
一般
370
               5
  6
Continuous
 62
               7
100
AcDbLine
 10
-485.2074867643484
 20
-560.55432192305796
 30
0.0
 11
-485.47362667773115
 21
-560.68019672754679
 31
0.0
  0
LINE
  5
2E2
100
AcDbEntity
  8
一般
370
               5
  6
Continuous
 62
               7
100
AcDbLine
 10
-484.95496627576762
 20
-560.40296696692053
 30
0.0
 11
-485.2074867643484
 21
-560.55432192305796
 31
0.0
  0
LINE
  5
2E3
100
AcDbEntity
  8
一般
370
               5
  6
Continuous
 62
               7
100
AcDbLine
 10
-484.71849712233546
 20
-560.22758949010108
 30
0.0
 11
-484.95496627576762
 21
-560.40296696692053
 31
0.0
  0
LINE
  5
2E4
100
AcDbEntity
  8
一般
370
               5
  6
Continuous
 62
               7
100
AcDbLine
 10
-484.50035663126675
 20
-560.02987847357258
 30
0.0
 11
-484.71849712233546
 21
-560.22758949010108
 31
0.0
  0
LINE
  5
2E5
100
AcDbEntity
  8
一般
370
               5
  6
Continuous
 62
               7
100
AcDbLine
 10
-484.3026456147382
 20
-559.81173798250381
 30
0.0
 11
-484.50035663126675
 21
-560.02987847357258
 31
0.0
  0
LINE
  5
2E6
100
AcDbEntity
  8
一般
370
               5
  6
Continuous
 62
               7
100
AcDbLine
 10
-484.1272681379188
 20
-559.57526882907177
 30
0.0
 11
-484.3026456147382
 21
-559.81173798250381
 31
0.0
  0
LINE
  5
2E7
100
AcDbEntity
  8
一般
370
               5
  6
Continuous
 62
               7
100
AcDbLine
 10
-483.97591318178132
 20
-559.32274834049088
 30
0.0
 11
-484.1272681379188
 21
-559.57526882907177
 31
0.0
  0
LINE
  5
2E8
100
AcDbEntity
  8
一般
370
               5
  6
Continuous
 62
               7
100
AcDbLine
 10
-483.85003837729255
 20
-559.05660842710824
 30
0.0
 11
-483.97591318178132
 21
-559.32274834049088
 31
0.0
  0
LINE
  5
2E9
100
AcDbEntity
  8
一般
370
               5
  6
Continuous
 62
               7
100
AcDbLine
 10
-483.75085596762978
 20
-558.77941216177635
 30
0.0
 11
-483.85003837729255
 21
-559.05660842710824
 31
0.0
  0
LINE
  5
2EA
100
AcDbEntity
  8
一般
370
               5
  6
Continuous
 62
               7
100
AcDbLine
 10
-483.67932113361672
 20
-558.49382909606129
 30
0.0
 11
-483.75085596762978
 21
-558.77941216177635
 31
0.0
  0
LINE
  5
2EB
100
AcDbEntity
  8
一般
370
               5
  6
Continuous
 62
               7
100
AcDbLine
 10
-483.63612279480981
 20
-558.20260955100161
 30
0.0
 11
-483.67932113361672
 21
-558.49382909606129
 31
0.0
  0
LINE
  5
2EC
100
AcDbEntity
  8
一般
370
               5
  6
Continuous
 62
               7
100
AcDbLine
 10
-483.62167697482641
 20
-557.90855813001292
 30
0.0
 11
-483.63612279480981
 21
-558.20260955100161
 31
0.0
  0
ENDBLK
  5
2ED
100
AcDbEntity
  8
一般
100
AcDbBlockEnd
  0
BLOCK
  5
2EE
100
AcDbEntity
  8
一般
100
AcDbBlockBegin
  2
*U3
 70
               1
 10
0.0
 20
0.0
 30
0.0
  3
*U3
  1

  0
LINE
  5
2EF
100
AcDbEntity
  8
一般
370
               5
  6
Continuous
 62
               7
100
AcDbLine
 10
1020.8783230251731
 20
-1330.9085581300128
 30
0.0
 11
1020.8783230251731
 21
-1230.9085581300128
 31
0.0
  0
LINE
  5
2F0
100
AcDbEntity
  8
一般
370
               5
  6
Continuous
 62
               7
100
AcDbLine
 10
1300.8783230251731
 20
-1330.9085581300128
 30
0.0
 11
1020.8783230251731
 21
-1330.9085581300128
 31
0.0
  0
LINE
  5
2F1
100
AcDbEntity
  8
一般
370
               5
  6
Continuous
 62
               7
100
AcDbLine
 10
1300.8783230251731
 20
-1230.9085581300128
 30
0.0
 11
1300.8783230251731
 21
-1330.9085581300128
 31
0.0
  0
LINE
  5
2F2
100
AcDbEntity
  8
一般
370
               5
  6
Continuous
 62
               7
100
AcDbLine
 10
1020.8783230251731
 20
-1230.9085581300128
 30
0.0
 11
1300.8783230251731
 21
-1230.9085581300128
 31
0.0
  0
LINE
  5
2F3
100
AcDbEntity
  8
一般
370
               5
  6
Continuous
 62
               7
100
AcDbLine
 10
1020.8783230251731
 20
-1230.9085581300128
 30
0.0
 11
1020.8783230251731
 21
-500.90855813001292
 31
0.0
  0
LINE
  5
2F4
100
AcDbEntity
  8
一般
370
               5
  6
Continuous
 62
               7
100
AcDbLine
 10
1300.8783230251731
 20
-1230.9085581300128
 30
0.0
 11
1020.8783230251731
 21
-1230.9085581300128
 31
0.0
  0
LINE
  5
2F5
100
AcDbEntity
  8
一般
370
               5
  6
Continuous
 62
               7
100
AcDbLine
 10
1300.8783230251731
 20
-500.90855813001292
 30
0.0
 11
1300.8783230251731
 21
-1230.9085581300128
 31
0.0
  0
LINE
  5
2F6
100
AcDbEntity
  8
一般
370
               5
  6
Continuous
 62
               7
100
AcDbLine
 10
1020.8783230251731
 20
-500.90855813001292
 30
0.0
 11
1300.8783230251731
 21
-500.90855813001292
 31
0.0
  0
LINE
  5
2F7
100
AcDbEntity
  8
一般
370
               5
  6
Continuous
 62
               7
100
AcDbLine
 10
995.87832302517313
 20
-500.90855813001292
 30
0.0
 11
995.87832302517313
 21
-480.90855813001292
 31
0.0
  0
LINE
  5
2F8
100
AcDbEntity
  8
一般
370
               5
  6
Continuous
 62
               7
100
AcDbLine
 10
1300.8783230251731
 20
-500.90855813001292
 30
0.0
 11
995.87832302517313
 21
-500.90855813001292
 31
0.0
  0
LINE
  5
2F9
100
AcDbEntity
  8
一般
370
               5
  6
Continuous
 62
               7
100
AcDbLine
 10
1300.8783230251731
 20
-480.90855813001292
 30
0.0
 11
1300.8783230251731
 21
-500.90855813001292
 31
0.0
  0
LINE
  5
2FA
100
AcDbEntity
  8
一般
370
               5
  6
Continuous
 62
               7
100
AcDbLine
 10
995.87832302517313
 20
-480.90855813001292
 30
0.0
 11
1300.8783230251731
 21
-480.90855813001292
 31
0.0
  0
LINE
  5
2FB
100
AcDbEntity
  8
一般
370
               5
  6
Continuous
 62
               7
100
AcDbLine
 10
1000.8783230251731
 20
-1230.9085581300128
 30
0.0
 11
1000.8783230251731
 21
-780.90855813001281
 31
0.0
  0
LINE
  5
2FC
100
AcDbEntity
  8
一般
370
               5
  6
Continuous
 62
               7
100
AcDbLine
 10
1020.8783230251731
 20
-1230.9085581300128
 30
0.0
 11
1000.8783230251731
 21
-1230.9085581300128
 31
0.0
  0
LINE
  5
2FD
100
AcDbEntity
  8
一般
370
               5
  6
Continuous
 62
               7
100
AcDbLine
 10
1020.8783230251731
 20
-780.90855813001281
 30
0.0
 11
1020.8783230251731
 21
-1230.9085581300128
 31
0.0
  0
LINE
  5
2FE
100
AcDbEntity
  8
一般
370
               5
  6
Continuous
 62
               7
100
AcDbLine
 10
1000.8783230251731
 20
-780.90855813001281
 30
0.0
 11
1020.8783230251731
 21
-780.90855813001281
 31
0.0
  0
LINE
  5
2FF
100
AcDbEntity
  8
一般
370
               5
  6
Continuous
 62
               7
100
AcDbLine
 10
1000.8783230251731
 20
-780.90855813001281
 30
0.0
 11
1000.8783230251731
 21
-500.90855813001292
 31
0.0
  0
LINE
  5
300
100
AcDbEntity
  8
一般
370
               5
  6
Continuous
 62
               7
100
AcDbLine
 10
1020.8783230251731
 20
-780.90855813001281
 30
0.0
 11
1000.8783230251731
 21
-780.90855813001281
 31
0.0
  0
LINE
  5
301
100
AcDbEntity
  8
一般
370
               5
  6
Continuous
 62
               7
100
AcDbLine
 10
1020.8783230251731
 20
-500.90855813001292
 30
0.0
 11
1020.8783230251731
 21
-780.90855813001281
 31
0.0
  0
LINE
  5
302
100
AcDbEntity
  8
一般
370
               5
  6
Continuous
 62
               7
100
AcDbLine
 10
1000.8783230251731
 20
-500.90855813001292
 30
0.0
 11
1020.8783230251731
 21
-500.90855813001292
 31
0.0
  0
ENDBLK
  5
303
100
AcDbEntity
  8
一般
100
AcDbBlockEnd
  0
BLOCK
  5
304
100
AcDbEntity
  8
一般
100
AcDbBlockBegin
  2
*U4
 70
               1
 10
0.0
 20
0.0
 30
0.0
  3
*U4
  1

  0
LINE
  5
305
100
AcDbEntity
  8
一般
370
               5
  6
Continuous
 62
               7
100
AcDbLine
 10
1020.8783230251731
 20
139.09144186998708
 30
0.0
 11
1020.8783230251731
 21
569.09144186998708
 31
0.0
  0
LINE
  5
306
100
AcDbEntity
  8
一般
370
               5
  6
Continuous
 62
               7
100
AcDbLine
 10
1280.8783230251731
 20
139.09144186998708
 30
0.0
 11
1020.8783230251731
 21
139.09144186998708
 31
0.0
  0
LINE
  5
307
100
AcDbEntity
  8
一般
370
               5
  6
Continuous
 62
               7
100
AcDbLine
 10
1280.8783230251731
 20
569.09144186998708
 30
0.0
 11
1280.8783230251731
 21
139.09144186998708
 31
0.0
  0
LINE
  5
308
100
AcDbEntity
  8
一般
370
               5
  6
Continuous
 62
               7
100
AcDbLine
 10
1020.8783230251731
 20
569.09144186998708
 30
0.0
 11
1280.8783230251731
 21
569.09144186998708
 31
0.0
  0
LINE
  5
309
100
AcDbEntity
  8
一般
370
               5
  6
Continuous
 62
               7
100
AcDbLine
 10
1000.8783230251731
 20
119.09144186998708
 30
0.0
 11
1000.8783230251731
 21
569.09144186998708
 31
0.0
  0
LINE
  5
30A
100
AcDbEntity
  8
一般
370
               5
  6
Continuous
 62
               7
100
AcDbLine
 10
1020.8783230251731
 20
119.09144186998708
 30
0.0
 11
1000.8783230251731
 21
119.09144186998708
 31
0.0
  0
LINE
  5
30B
100
AcDbEntity
  8
一般
370
               5
  6
Continuous
 62
               7
100
AcDbLine
 10
1020.8783230251731
 20
569.09144186998708
 30
0.0
 11
1020.8783230251731
 21
119.09144186998708
 31
0.0
  0
LINE
  5
30C
100
AcDbEntity
  8
一般
370
               5
  6
Continuous
 62
               7
100
AcDbLine
 10
1000.8783230251731
 20
569.09144186998708
 30
0.0
 11
1020.8783230251731
 21
569.09144186998708
 31
0.0
  0
ENDBLK
  5
30D
100
AcDbEntity
  8
一般
100
AcDbBlockEnd
  0
ENDSEC
  0
SECTION
  2
ENTITIES
  0
INSERT
  5
30E
100
AcDbEntity
  8
一般
 62
               7
100
AcDbBlockReference
  2
*U0
 10
109.12167697482639
 20
170.90855813001198
 30
0.0
  0
INSERT
  5
30F
100
AcDbEntity
  8
一般
 62
               7
100
AcDbBlockReference
  2
*U1
 10
109.12167697482639
 20
170.90855813001198
 30
0.0
  0
INSERT
  5
310
100
AcDbEntity
  8
一般
 62
               7
100
AcDbBlockReference
  2
*U2
 10
109.12167697482639
 20
170.90855813001198
 30
0.0
  0
INSERT
  5
311
100
AcDbEntity
  8
一般
 62
               7
100
AcDbBlockReference
  2
*U3
 10
109.12167697482639
 20
170.90855813001198
 30
0.0
  0
INSERT
  5
312
100
AcDbEntity
  8
一般
 62
               7
100
AcDbBlockReference
  2
*U4
 10
109.12167697482639
 20
170.90855813001198
 30
0.0
  0
ENDSEC
  0
SECTION
  2
OBJECTS
  0
DICTIONARY
  5
19
100
AcDbDictionary
280
               0
281
               1
  3
ACAD_GROUP
350
1A
  3
ACAD_MLINESTYLE
350
1B
  3
ACAD_LAYOUT
350
1E
  3
ACAD_PLOTSETTINGS
350
22
  3
ACAD_PLOTSTYLENAME
350
1F
  0
DICTIONARY
  5
1A
102
{ACAD_REACTORS
330
19
102
}
100
AcDbDictionary
280
               0
281
               1
  0
DICTIONARY
  5
1B
102
{ACAD_REACTORS
330
19
102
}
100
AcDbDictionary
280
               0
281
               1
  3
Standard
350
1C
  0
MLINESTYLE
  5
1C
102
{ACAD_REACTORS
330
1B
102
}
100
AcDbMlineStyle
  2
Standard
 70
               0
  3

 62
               0
 51
90.0
 52
90.0
 71
               2
 49
0.5
 62
             256
  6
BYLAYER
 49
-0.5
 62
             256
  6
BYLAYER
  0
ACDBDICTIONARYWDFLT
  5
1F
102
{ACAD_REACTORS
330
19
102
}
100
AcDbDictionary
281
               1
  3
Normal
350
1D
100
AcDbDictionaryWithDefault
340
1D
  0
ACDBPLACEHOLDER
  5
1D
102
{ACAD_REACTORS
330
1F
102
}
  0
LAYOUT
  5
20
102
{ACAD_REACTORS
330
1E
102
}
100
AcDbPlotSettings
  1

  2

  4

  6

 40
0.0
 41
0.0
 42
0.0
 43
0.0
 44
0.0
 45
0.0
 46
0.0
 47
0.0
 48
0.0
 49
0.0
140
0.0
141
0.0
142
1.0
143
1.0
 70
            1024
 72
               0
 73
               0
 74
               0
  7

 75
               0
147
1.0
148
0.0
149
0.0
100
AcDbLayout
  1
Model
 70
               0
 71
               0
 10
0.0
 20
0.0
 11
0.0
 21
0.0
 12
0.0
 22
0.0
 32
0.0
 14
0.0
 24
0.0
 34
0.0
 15
0.0
 25
0.0
 35
0.0
146
0.0
 13
0.0
 23
0.0
 33
0.0
 16
0.0
 26
0.0
 36
0.0
 17
0.0
 27
0.0
 37
0.0
 76
               0
330
A
331
0
345
0
346
0
  0
LAYOUT
  5
21
102
{ACAD_REACTORS
330
1E
102
}
100
AcDbPlotSettings
  1

  2

  4

  6

 40
0.0
 41
0.0
 42
0.0
 43
0.0
 44
0.0
 45
0.0
 46
0.0
 47
0.0
 48
0.0
 49
0.0
140
0.0
141
0.0
142
1.0
143
1.0
 70
               0
 72
               0
 73
               0
 74
               0
  7

 75
               0
147
1.0
148
0.0
149
0.0
100
AcDbLayout
  1
Layout1
 70
               0
 71
               0
 10
0.0
 20
0.0
 11
0.0
 21
0.0
 12
0.0
 22
0.0
 32
0.0
 14
0.0
 24
0.0
 34
0.0
 15
0.0
 25
0.0
 35
0.0
146
0.0
 13
0.0
 23
0.0
 33
0.0
 16
0.0
 26
0.0
 36
0.0
 17
0.0
 27
0.0
 37
0.0
 76
               0
330
B
331
0
345
0
346
0
  0
DICTIONARY
  5
1E
102
{ACAD_REACTORS
330
19
102
}
100
AcDbDictionary
280
               0
281
               1
  3
Layout1
350
21
  3
Model
350
20
  0
DICTIONARY
  5
22
102
{ACAD_REACTORS
330
19
102
}
100
AcDbDictionary
280
               0
281
               1
  0
ENDSEC
  0
EOF
