  0
SECTION
  2
HEADER
  9
$ACADVER
  1
AC1012
  9
$DWGCODEPAGE
  3
ansi_932
  9
$INSBASE
 10
0.0
 20
0.0
 30
0.0
  9
$EXTMIN
 10
0.0
 20
0.0
 30
0.0
  9
$EXTMAX
 10
1620.307683
 20
891.230257
 30
0.0
  9
$LIMMIN
 10
0.0
 20
0.0
  9
$LIMMAX
 10
1620.307683
 20
891.230257
  9
$ORTHOMODE
 70
     0
  9
$REGENMODE
 70
     1
  9
$FILLMODE
 70
     1
  9
$QTEXTMODE
 70
     0
  9
$MIRRTEXT
 70
     1
  9
$DRAGMODE
 70
     2
  9
$LTSCALE
 40
1.0
  9
$OSMODE
 70
    37
  9
$ATTMODE
 70
     1
  9
$TEXTSIZE
 40
0.2
  9
$TRACEWID
 40
1.0
  9
$TEXTSTYLE
  7
ED_VECTOR
  9
$CLAYER
  8
0
  9
$CELTYPE
  6
BYLAYER
  9
$CECOLOR
 62
   256
  9
$CELTSCALE
 40
1.0
  9
$DELOBJ
 70
     1
  9
$DISPSILH
 70
     0
  9
$DIMSCALE
 40
1.0
  9
$DIMASZ
 40
3.0
  9
$DIMEXO
 40
1.0
  9
$DIMDLI
 40
10.0
  9
$DIMRND
 40
0.0
  9
$DIMDLE
 40
5.0
  9
$DIMEXE
 40
1.0
  9
$DIMTP
 40
0.0
  9
$DIMTM
 40
0.0
  9
$DIMTXT
 40
4.0
  9
$DIMCEN
 40
2.5
  9
$DIMTSZ
 40
0.0
  9
$DIMTOL
 70
     0
  9
$DIMLIM
 70
     0
  9
$DIMTIH
 70
     0
  9
$DIMTOH
 70
     0
  9
$DIMSE1
 70
     0
  9
$DIMSE2
 70
     0
  9
$DIMTAD
 70
     1
  9
$DIMZIN
 70
     8
  9
$DIMBLK
  1

  9
$DIMASO
 70
     1
  9
$DIMSHO
 70
     1
  9
$DIMPOST
  1

  9
$DIMAPOST
  1

  9
$DIMALT
 70
     0
  9
$DIMALTD
 70
     3
  9
$DIMALTF
 40
0.03937
  9
$DIMLFAC
 40
1.0
  9
$DIMTOFL
 70
     1
  9
$DIMTVP
 40
0.0
  9
$DIMTIX
 70
     0
  9
$DIMSOXD
 70
     0
  9
$DIMSAH
 70
     1
  9
$DIMBLK1
  1
EDTIP_ARROW_S
  9
$DIMBLK2
  1
EDTIP_ARROW_E
  9
$DIMSTYLE
  2
EDDIMINFO
  9
$DIMCLRD
 70
     7
  9
$DIMCLRE
 70
     7
  9
$DIMCLRT
 70
     7
  9
$DIMTFAC
 40
1.0
  9
$DIMGAP
 40
1.0
  9
$DIMJUST
 70
     0
  9
$DIMSD1
 70
     0
  9
$DIMSD2
 70
     0
  9
$DIMTOLJ
 70
     0
  9
$DIMTZIN
 70
     8
  9
$DIMALTZ
 70
     0
  9
$DIMALTTZ
 70
     0
  9
$DIMFIT
 70
     3
  9
$DIMUPT
 70
     0
  9
$DIMUNIT
 70
     2
  9
$DIMDEC
 70
     2
  9
$DIMTDEC
 70
     2
  9
$DIMALTU
 70
     2
  9
$DIMALTTD
 70
     3
  9
$DIMTXSTY
  7
ED_VECTOR
  9
$DIMAUNIT
 70
     0
  9
$LUNITS
 70
     2
  9
$LUPREC
 70
     4
  9
$SKETCHINC
 40
1.0
  9
$FILLETRAD
 40
10.0
  9
$AUNITS
 70
     0
  9
$AUPREC
 70
     0
  9
$MENU
  1
.
  9
$ELEVATION
 40
0.0
  9
$PELEVATION
 40
0.0
  9
$THICKNESS
 40
0.0
  9
$LIMCHECK
 70
     0
  9
$CHAMFERA
 40
10.0
  9
$CHAMFERB
 40
10.0
  9
$CHAMFERC
 40
20.0
  9
$CHAMFERD
 40
0.0
  9
$SKPOLY
 70
     0
  9
$TDCREATE
 40
2458998.500388368
  9
$TDUPDATE
 40
2458998.500388495
  9
$TDINDWG
 40
0.0000000116
  9
$TDUSRTIMER
 40
0.0000000116
  9
$USRTIMER
 70
     1
  9
$ANGBASE
 50
0.0
  9
$ANGDIR
 70
     0
  9
$PDMODE
 70
     0
  9
$PDSIZE
 40
0.0
  9
$PLINEWID
 40
0.0
  9
$COORDS
 70
     1
  9
$SPLFRAME
 70
     0
  9
$SPLINETYPE
 70
     6
  9
$SPLINESEGS
 70
     8
  9
$ATTDIA
 70
     0
  9
$ATTREQ
 70
     1
  9
$HANDLING
 70
     1
  9
$HANDSEED
  5
D7
  9
$SURFTAB1
 70
     6
  9
$SURFTAB2
 70
     6
  9
$SURFTYPE
 70
     6
  9
$SURFU
 70
     6
  9
$SURFV
 70
     6
  9
$UCSNAME
  2

  9
$UCSORG
 10
0.0
 20
0.0
 30
0.0
  9
$UCSXDIR
 10
1.0
 20
0.0
 30
0.0
  9
$UCSYDIR
 10
0.0
 20
1.0
 30
0.0
  9
$PUCSNAME
  2

  9
$PUCSORG
 10
0.0
 20
0.0
 30
0.0
  9
$PUCSXDIR
 10
1.0
 20
0.0
 30
0.0
  9
$PUCSYDIR
 10
0.0
 20
1.0
 30
0.0
  9
$USERI1
 70
     0
  9
$USERI2
 70
     0
  9
$USERI3
 70
     0
  9
$USERI4
 70
     0
  9
$USERI5
 70
     0
  9
$USERR1
 40
0.0
  9
$USERR2
 40
0.0
  9
$USERR3
 40
0.0
  9
$USERR4
 40
0.0
  9
$USERR5
 40
0.0
  9
$WORLDVIEW
 70
     1
  9
$SHADEDGE
 70
     3
  9
$SHADEDIF
 70
    70
  9
$TILEMODE
 70
     1
  9
$MAXACTVP
 70
    64
  9
$PINSBASE
 10
0.0
 20
0.0
 30
0.0
  9
$PLIMCHECK
 70
     0
  9
$PEXTMIN
 10
1.000000E+20
 20
1.000000E+20
 30
1.000000E+20
  9
$PEXTMAX
 10
-1.000000E+20
 20
-1.000000E+20
 30
-1.000000E+20
  9
$PLIMMIN
 10
0.0
 20
0.0
  9
$PLIMMAX
 10
420.0
 20
297.0
  9
$UNITMODE
 70
     0
  9
$VISRETAIN
 70
     1
  9
$PLINEGEN
 70
     0
  9
$PSLTSCALE
 70
     1
  9
$TREEDEPTH
 70
  3020
  9
$PICKSTYLE
 70
     1
  9
$CMLSTYLE
  2
STANDARD
  9
$CMLJUST
 70
     0
  9
$CMLSCALE
 40
20.0
  9
$SAVEIMAGES
 70
     1
  0
ENDSEC
  0
SECTION
  2
CLASSES
  0
CLASS
  1
ACDBDICTIONARYWDFLT
  2
AcDbDictionaryWithDefault
  3
ObjectDBX Classes
 90
    32768
280
     0
281
     0
  0
CLASS
  1
VISUALSTYLE
  2
AcDbVisualStyle
  3
ObjectDBX Classes
 90
     4095
280
     0
281
     0
  0
CLASS
  1
MATERIAL
  2
AcDbMaterial
  3
ObjectDBX Classes
 90
     1153
280
     0
281
     0
  0
CLASS
  1
DICTIONARYVAR
  2
AcDbDictionaryVar
  3
ObjectDBX Classes
 90
        0
280
     0
281
     0
  0
CLASS
  1
XRECORD
  2
AcDbXrecord
  3
AutoCAD 2000
 90
    32768
280
     0
281
     0
  0
CLASS
  1
LWPOLYLINE
  2
AcDbPolyline
  3
AutoCAD 2000
 90
    32768
280
     0
281
     1
  0
CLASS
  1
HATCH
  2
AcDbHatch
  3
AutoCAD 2000
 90
    32768
280
     0
281
     1
  0
CLASS
  1
ACDBPLACEHOLDER
  2
AcDbPlaceHolder
  3
ObjectDBX Classes
 90
        0
280
     0
281
     0
  0
CLASS
  1
LAYOUT
  2
AcDbLayout
  3
ObjectDBX Classes
 90
        0
280
     0
281
     0
  0
ENDSEC
  0
SECTION
  2
TABLES
  0
TABLE
  2
VPORT
  5
8
330
0
100
AcDbSymbolTable
 70
     1
  0
VPORT
  5
29
330
8
100
AcDbSymbolTableRecord
100
AcDbViewportTableRecord
  2
*ACTIVE
 70
     0
 10
0.0
 20
0.0
 11
1.0
 21
1.0
 12
810.153841
 22
445.615129
 13
0.0
 23
0.0
 14
10.0
 24
10.0
 15
10.0
 25
10.0
 16
0.0
 26
0.0
 36
1.0
 17
0.0
 27
0.0
 37
0.0
 40
891.230257
 41
1.818057
 42
50.0
 43
0.0
 44
0.0
 50
0.0
 51
0.0
 71
     0
 72
   100
 73
     1
 74
     3
 75
     0
 76
     0
 77
     0
 78
     0
  0
ENDTAB
  0
TABLE
  2
LTYPE
  5
5
330
0
100
AcDbSymbolTable
 70
     5
  0
LTYPE
  5
14
330
5
100
AcDbSymbolTableRecord
100
AcDbLinetypeTableRecord
  2
BYBLOCK
 70
     0
  3

 72
    65
 73
     0
 40
0.0
  0
LTYPE
  5
15
330
5
100
AcDbSymbolTableRecord
100
AcDbLinetypeTableRecord
  2
BYLAYER
 70
     0
  3

 72
    65
 73
     0
 40
0.0
  0
LTYPE
  5
16
330
5
100
AcDbSymbolTableRecord
100
AcDbLinetypeTableRecord
  2
CONTINUOUS
 70
     0
  3
--------------------
 72
    65
 73
     0
 40
0.0
  0
LTYPE
  5
3F
330
5
100
AcDbSymbolTableRecord
100
AcDbLinetypeTableRecord
  2
DASHED
 70
     0
  3
- - - - - - - - - - -
 72
    65
 73
     2
 40
19.1
 49
12.7
 74
     0
 49
-6.4
 74
     0
  0
LTYPE
  5
40
330
5
100
AcDbSymbolTableRecord
100
AcDbLinetypeTableRecord
  2
CENTER
 70
     0
  3
- ･ - ･ - ･ - ･ - ･ - ･ - ･ - ･ - ･ - ･ -
 72
    65
 73
     4
 40
51.0
 49
31.8
 74
     0
 49
-6.4
 74
     0
 49
6.4
 74
     0
 49
-6.4
 74
     0
  0
LTYPE
  5
41
330
5
100
AcDbSymbolTableRecord
100
AcDbLinetypeTableRecord
  2
PHANTOM
 70
     0
  3
- ･ ･ - ･ ･ - ･ ･ - ･ ･ - ･ ･ - ･ ･ - ･ ･ - 
 72
    65
 73
     6
 40
63.8
 49
31.8
 74
     0
 49
-6.4
 74
     0
 49
6.4
 74
     0
 49
-6.4
 74
     0
 49
6.4
 74
     0
 49
-6.4
 74
     0
  0
LTYPE
  5
42
330
5
100
AcDbSymbolTableRecord
100
AcDbLinetypeTableRecord
  2
DOT
 70
     0
  3
・・・・・・・・・・・・・・・
 72
    65
 73
     2
 40
6.5
 49
0.1
 74
     0
 49
-6.4
 74
     0
  0
ENDTAB
  0
TABLE
  2
LAYER
  5
2
330
0
100
AcDbSymbolTable
 70
    16
  0
LAYER
  5
10
330
2
100
AcDbSymbolTableRecord
100
AcDbLayerTableRecord
  2
0
 70
     0
 62
     3
  6
CONTINUOUS
  0
LAYER
  5
43
330
2
100
AcDbSymbolTableRecord
100
AcDbLayerTableRecord
  2
CSLAYER2
 70
     0
 62
     3
  6
CONTINUOUS
  0
ENDTAB
  0
TABLE
  2
STYLE
  5
3
330
0
100
AcDbSymbolTable
 70
     2
  0
STYLE
  5
11
330
3
100
AcDbSymbolTableRecord
100
AcDbTextStyleTableRecord
  2
STANDARD
 70
     0
 40
0.0
 41
1.0
 50
0.0
 71
     0
 42
2.5
  3
txt
  4

  0
STYLE
  5
52
330
3
100
AcDbSymbolTableRecord
100
AcDbTextStyleTableRecord
  2
ED_VECTOR
 70
     0
 40
0.0
 41
1.0
 50
0.0
 71
     0
 42
0.2
  3
MONOTXT.SHX
  4
BIGFONT.SHX
  0
ENDTAB
  0
TABLE
  2
VIEW
  5
6
330
0
100
AcDbSymbolTable
 70
     0
  0
ENDTAB
  0
TABLE
  2
UCS
  5
7
330
0
100
AcDbSymbolTable
 70
     0
  0
ENDTAB
  0
TABLE
  2
APPID
  5
9
330
0
100
AcDbSymbolTable
 70
     1
  0
APPID
  5
12
330
9
100
AcDbSymbolTableRecord
100
AcDbRegAppTableRecord
  2
ACAD
 70
     0
  0
ENDTAB
  0
TABLE
  2
DIMSTYLE
  5
A
330
0
100
AcDbSymbolTable
 70
     2
  0
DIMSTYLE
105
27
330
A
100
AcDbSymbolTableRecord
100
AcDbDimStyleTableRecord
  2
ISO-25
 70
     0
  3

  4

  5

  6

  7

 40
1.0
 41
2.5
 42
0.625
 43
3.75
 44
1.25
 45
0.0
 46
0.0
 47
0.0
 48
0.0
140
2.5
141
2.5
142
0.0
143
0.03937
144
1.0
145
0.0
146
1.0
147
0.625
 71
     0
 72
     0
 73
     0
 74
     0
 75
     0
 76
     0
 77
     1
 78
     8
170
     0
171
     3
172
     1
173
     0
174
     0
175
     0
176
     0
177
     0
178
     0
270
     2
271
     2
272
     2
273
     2
274
     3
340
11
275
     0
280
     0
281
     0
282
     0
283
     0
284
     8
285
     0
286
     0
287
     3
288
     0
  0
DIMSTYLE
105
8D
330
A
100
AcDbSymbolTableRecord
100
AcDbDimStyleTableRecord
  2
EDDIMINFO
 70
     0
  3

  4

  5

  6
EDTIP_ARROW_S
  7
EDTIP_ARROW_E
 40
1.0
 41
3.0
 42
1.0
 43
10.0
 44
1.0
 45
0.0
 46
5.0
 47
0.0
 48
0.0
140
4.0
141
2.5
142
0.0
143
0.03937
144
1.0
145
0.0
146
1.0
147
1.0
 71
     0
 72
     0
 73
     0
 74
     0
 75
     0
 76
     0
 77
     1
 78
     8
170
     0
171
     3
172
     1
173
     1
174
     0
175
     0
176
     7
177
     7
178
     7
179
     2
270
     2
271
     2
272
     2
273
     2
274
     3
340
52
275
     0
280
     0
281
     0
282
     0
283
     0
284
     8
285
     0
286
     0
287
     3
288
     0
  0
ENDTAB
  0
TABLE
  2
BLOCK_RECORD
  5
1
330
0
100
AcDbSymbolTable
 70
    15
  0
BLOCK_RECORD
  5
1F
330
1
100
AcDbSymbolTableRecord
100
AcDbBlockTableRecord
  2
*MODEL_SPACE
  0
BLOCK_RECORD
  5
1B
330
1
100
AcDbSymbolTableRecord
100
AcDbBlockTableRecord
  2
*PAPER_SPACE
  0
BLOCK_RECORD
  5
53
330
1
100
AcDbSymbolTableRecord
100
AcDbBlockTableRecord
  2
EDTIP_ARROW_S
  0
BLOCK_RECORD
  5
59
330
1
100
AcDbSymbolTableRecord
100
AcDbBlockTableRecord
  2
EDTIP_ARROW_E
  0
BLOCK_RECORD
  5
5F
330
1
100
AcDbSymbolTableRecord
100
AcDbBlockTableRecord
  2
EDTIP_BLACKDOT_S
  0
BLOCK_RECORD
  5
65
330
1
100
AcDbSymbolTableRecord
100
AcDbBlockTableRecord
  2
EDTIP_BLACKDOT_E
  0
BLOCK_RECORD
  5
6B
330
1
100
AcDbSymbolTableRecord
100
AcDbBlockTableRecord
  2
EDTIP_ARCHITECT_S
  0
BLOCK_RECORD
  5
71
330
1
100
AcDbSymbolTableRecord
100
AcDbBlockTableRecord
  2
EDTIP_ARCHITECT_E
  0
BLOCK_RECORD
  5
77
330
1
100
AcDbSymbolTableRecord
100
AcDbBlockTableRecord
  2
EDTIP_CIVIL_S
  0
BLOCK_RECORD
  5
7D
330
1
100
AcDbSymbolTableRecord
100
AcDbBlockTableRecord
  2
EDTIP_CIVIL_E
  0
BLOCK_RECORD
  5
83
330
1
100
AcDbSymbolTableRecord
100
AcDbBlockTableRecord
  2
EDTIP_WHITEDOT_S
  0
BLOCK_RECORD
  5
88
330
1
100
AcDbSymbolTableRecord
100
AcDbBlockTableRecord
  2
EDTIP_WHITEDOT_E
  0
BLOCK_RECORD
  5
8E
330
1
100
AcDbSymbolTableRecord
100
AcDbBlockTableRecord
  2
BLKF014
  0
BLOCK_RECORD
  5
A2
330
1
100
AcDbSymbolTableRecord
100
AcDbBlockTableRecord
  2
BLKF015
  0
BLOCK_RECORD
  5
AE
330
1
100
AcDbSymbolTableRecord
100
AcDbBlockTableRecord
  2
BLKF016
  0
BLOCK_RECORD
  5
B6
330
1
100
AcDbSymbolTableRecord
100
AcDbBlockTableRecord
  2
BLKF017
  0
ENDTAB
  0
ENDSEC
  0
SECTION
  2
BLOCKS
  0
BLOCK
  5
20
330
1F
100
AcDbEntity
  8
0
100
AcDbBlockBegin
  2
*MODEL_SPACE
 70
     0
 10
0.0
 20
0.0
 30
0.0
  3
*MODEL_SPACE
  1

  0
ENDBLK
  5
21
330
1F
100
AcDbEntity
  8
0
100
AcDbBlockEnd
  0
BLOCK
  5
1C
330
1B
100
AcDbEntity
 67
     1
  8
0
100
AcDbBlockBegin
  2
*PAPER_SPACE
 70
     0
 10
0.0
 20
0.0
 30
0.0
  3
*PAPER_SPACE
  1

  0
ENDBLK
  5
1D
330
1B
100
AcDbEntity
 67
     1
  8
0
100
AcDbBlockEnd
  0
BLOCK
  5
54
330
53
100
AcDbEntity
  8
0
100
AcDbBlockBegin
  2
EDTIP_ARROW_S
 70
     0
 10
0.0
 20
0.0
 30
0.0
  3
EDTIP_ARROW_S
  1

  0
LINE
  5
56
330
53
100
AcDbEntity
  8
0
  6
CONTINUOUS
 62
     0
100
AcDbLine
 10
0.0
 20
0.0
 30
0.0
 11
-1.0
 21
0.0
 31
0.0
  0
LINE
  5
57
330
53
100
AcDbEntity
  8
0
  6
CONTINUOUS
 62
     0
100
AcDbLine
 10
0.0
 20
0.0
 30
0.0
 11
-0.965926
 21
0.258819
 31
0.0
  0
LINE
  5
58
330
53
100
AcDbEntity
  8
0
  6
CONTINUOUS
 62
     0
100
AcDbLine
 10
0.0
 20
0.0
 30
0.0
 11
-0.965926
 21
-0.258819
 31
0.0
  0
ENDBLK
  5
55
330
53
100
AcDbEntity
  8
0
100
AcDbBlockEnd
  0
BLOCK
  5
5A
330
59
100
AcDbEntity
  8
0
100
AcDbBlockBegin
  2
EDTIP_ARROW_E
 70
     0
 10
0.0
 20
0.0
 30
0.0
  3
EDTIP_ARROW_E
  1

  0
LINE
  5
5C
330
59
100
AcDbEntity
  8
0
  6
CONTINUOUS
 62
     0
100
AcDbLine
 10
0.0
 20
0.0
 30
0.0
 11
-1.0
 21
0.0
 31
0.0
  0
LINE
  5
5D
330
59
100
AcDbEntity
  8
0
  6
CONTINUOUS
 62
     0
100
AcDbLine
 10
0.0
 20
0.0
 30
0.0
 11
-0.965926
 21
-0.258819
 31
0.0
  0
LINE
  5
5E
330
59
100
AcDbEntity
  8
0
  6
CONTINUOUS
 62
     0
100
AcDbLine
 10
0.0
 20
0.0
 30
0.0
 11
-0.965926
 21
0.258819
 31
0.0
  0
ENDBLK
  5
5B
330
59
100
AcDbEntity
  8
0
100
AcDbBlockEnd
  0
BLOCK
  5
60
330
5F
100
AcDbEntity
  8
0
100
AcDbBlockBegin
  2
EDTIP_BLACKDOT_S
 70
     0
 10
0.0
 20
0.0
 30
0.0
  3
EDTIP_BLACKDOT_S
  1

  0
LINE
  5
62
330
5F
100
AcDbEntity
  8
0
  6
CONTINUOUS
 62
     0
100
AcDbLine
 10
0.0
 20
0.0
 30
0.0
 11
-1.0
 21
0.0
 31
0.0
  0
CIRCLE
  5
63
330
5F
100
AcDbEntity
  8
0
  6
CONTINUOUS
 62
     0
100
AcDbCircle
 10
0.0
 20
0.0
 30
0.0
 40
0.5
  0
CIRCLE
  5
64
330
5F
100
AcDbEntity
  8
0
  6
CONTINUOUS
 62
     0
100
AcDbCircle
 10
0.0
 20
0.0
 30
0.0
 40
0.25
  0
ENDBLK
  5
61
330
5F
100
AcDbEntity
  8
0
100
AcDbBlockEnd
  0
BLOCK
  5
66
330
65
100
AcDbEntity
  8
0
100
AcDbBlockBegin
  2
EDTIP_BLACKDOT_E
 70
     0
 10
0.0
 20
0.0
 30
0.0
  3
EDTIP_BLACKDOT_E
  1

  0
LINE
  5
68
330
65
100
AcDbEntity
  8
0
  6
CONTINUOUS
 62
     0
100
AcDbLine
 10
0.0
 20
0.0
 30
0.0
 11
-1.0
 21
0.0
 31
0.0
  0
CIRCLE
  5
69
330
65
100
AcDbEntity
  8
0
  6
CONTINUOUS
 62
     0
100
AcDbCircle
 10
0.0
 20
0.0
 30
0.0
 40
0.5
  0
CIRCLE
  5
6A
330
65
100
AcDbEntity
  8
0
  6
CONTINUOUS
 62
     0
100
AcDbCircle
 10
0.0
 20
0.0
 30
0.0
 40
0.25
  0
ENDBLK
  5
67
330
65
100
AcDbEntity
  8
0
100
AcDbBlockEnd
  0
BLOCK
  5
6C
330
6B
100
AcDbEntity
  8
0
100
AcDbBlockBegin
  2
EDTIP_ARCHITECT_S
 70
     0
 10
0.0
 20
0.0
 30
0.0
  3
EDTIP_ARCHITECT_S
  1

  0
LINE
  5
6E
330
6B
100
AcDbEntity
  8
0
  6
CONTINUOUS
 62
     0
100
AcDbLine
 10
0.0
 20
0.0
 30
0.0
 11
-1.0
 21
0.0
 31
0.0
  0
LINE
  5
6F
330
6B
100
AcDbEntity
  8
0
  6
CONTINUOUS
 62
     0
100
AcDbLine
 10
0.0
 20
0.0
 30
0.0
 11
-0.707107
 21
-0.707107
 31
0.0
  0
LINE
  5
70
330
6B
100
AcDbEntity
  8
0
  6
CONTINUOUS
 62
     0
100
AcDbLine
 10
0.0
 20
0.0
 30
0.0
 11
0.707107
 21
0.707107
 31
0.0
  0
ENDBLK
  5
6D
330
6B
100
AcDbEntity
  8
0
100
AcDbBlockEnd
  0
BLOCK
  5
72
330
71
100
AcDbEntity
  8
0
100
AcDbBlockBegin
  2
EDTIP_ARCHITECT_E
 70
     0
 10
0.0
 20
0.0
 30
0.0
  3
EDTIP_ARCHITECT_E
  1

  0
LINE
  5
74
330
71
100
AcDbEntity
  8
0
  6
CONTINUOUS
 62
     0
100
AcDbLine
 10
0.0
 20
0.0
 30
0.0
 11
-1.0
 21
0.0
 31
0.0
  0
LINE
  5
75
330
71
100
AcDbEntity
  8
0
  6
CONTINUOUS
 62
     0
100
AcDbLine
 10
0.0
 20
0.0
 30
0.0
 11
-0.707107
 21
-0.707107
 31
0.0
  0
LINE
  5
76
330
71
100
AcDbEntity
  8
0
  6
CONTINUOUS
 62
     0
100
AcDbLine
 10
0.0
 20
0.0
 30
0.0
 11
0.707107
 21
0.707107
 31
0.0
  0
ENDBLK
  5
73
330
71
100
AcDbEntity
  8
0
100
AcDbBlockEnd
  0
BLOCK
  5
78
330
77
100
AcDbEntity
  8
0
100
AcDbBlockBegin
  2
EDTIP_CIVIL_S
 70
     0
 10
0.0
 20
0.0
 30
0.0
  3
EDTIP_CIVIL_S
  1

  0
LINE
  5
7A
330
77
100
AcDbEntity
  8
0
  6
CONTINUOUS
 62
     0
100
AcDbLine
 10
0.0
 20
0.0
 30
0.0
 11
-1.0
 21
0.0
 31
0.0
  0
LINE
  5
7B
330
77
100
AcDbEntity
  8
0
  6
CONTINUOUS
 62
     0
100
AcDbLine
 10
0.0
 20
-0.083333
 30
0.0
 11
-1.0
 21
-0.083333
 31
0.0
  0
LINE
  5
7C
330
77
100
AcDbEntity
  8
0
  6
CONTINUOUS
 62
     0
100
AcDbLine
 10
0.0
 20
-0.166667
 30
0.0
 11
-1.0
 21
-0.166667
 31
0.0
  0
ENDBLK
  5
79
330
77
100
AcDbEntity
  8
0
100
AcDbBlockEnd
  0
BLOCK
  5
7E
330
7D
100
AcDbEntity
  8
0
100
AcDbBlockBegin
  2
EDTIP_CIVIL_E
 70
     0
 10
0.0
 20
0.0
 30
0.0
  3
EDTIP_CIVIL_E
  1

  0
LINE
  5
80
330
7D
100
AcDbEntity
  8
0
  6
CONTINUOUS
 62
     0
100
AcDbLine
 10
0.0
 20
0.0
 30
0.0
 11
-1.0
 21
0.0
 31
0.0
  0
LINE
  5
81
330
7D
100
AcDbEntity
  8
0
  6
CONTINUOUS
 62
     0
100
AcDbLine
 10
0.0
 20
0.083333
 30
0.0
 11
-1.0
 21
0.083333
 31
0.0
  0
LINE
  5
82
330
7D
100
AcDbEntity
  8
0
  6
CONTINUOUS
 62
     0
100
AcDbLine
 10
0.0
 20
0.166667
 30
0.0
 11
-1.0
 21
0.166667
 31
0.0
  0
ENDBLK
  5
7F
330
7D
100
AcDbEntity
  8
0
100
AcDbBlockEnd
  0
BLOCK
  5
84
330
83
100
AcDbEntity
  8
0
100
AcDbBlockBegin
  2
EDTIP_WHITEDOT_S
 70
     0
 10
0.0
 20
0.0
 30
0.0
  3
EDTIP_WHITEDOT_S
  1

  0
LINE
  5
86
330
83
100
AcDbEntity
  8
0
  6
CONTINUOUS
 62
     0
100
AcDbLine
 10
0.0
 20
0.0
 30
0.0
 11
-1.0
 21
0.0
 31
0.0
  0
CIRCLE
  5
87
330
83
100
AcDbEntity
  8
0
  6
CONTINUOUS
 62
     0
100
AcDbCircle
 10
0.0
 20
0.0
 30
0.0
 40
0.5
  0
ENDBLK
  5
85
330
83
100
AcDbEntity
  8
0
100
AcDbBlockEnd
  0
BLOCK
  5
89
330
88
100
AcDbEntity
  8
0
100
AcDbBlockBegin
  2
EDTIP_WHITEDOT_E
 70
     0
 10
0.0
 20
0.0
 30
0.0
  3
EDTIP_WHITEDOT_E
  1

  0
LINE
  5
8B
330
88
100
AcDbEntity
  8
0
  6
CONTINUOUS
 62
     0
100
AcDbLine
 10
0.0
 20
0.0
 30
0.0
 11
-1.0
 21
0.0
 31
0.0
  0
CIRCLE
  5
8C
330
88
100
AcDbEntity
  8
0
  6
CONTINUOUS
 62
     0
100
AcDbCircle
 10
0.0
 20
0.0
 30
0.0
 40
0.5
  0
ENDBLK
  5
8A
330
88
100
AcDbEntity
  8
0
100
AcDbBlockEnd
  0
BLOCK
  5
8F
330
8E
100
AcDbEntity
  8
0
100
AcDbBlockBegin
  2
BLKF014
 70
     0
 10
0.0
 20
0.0
 30
0.0
  3
BLKF014
  1

  0
LINE
  5
92
330
8E
100
AcDbEntity
  8
CSLAYER2
  6
CONTINUOUS
 62
     3
100
AcDbLine
 10
1120.000766
 20
20.0
 30
0.0
 11
20.0
 21
20.0
 31
0.0
  0
LINE
  5
93
330
8E
100
AcDbEntity
  8
CSLAYER2
  6
CONTINUOUS
 62
     3
100
AcDbLine
 10
20.0
 20
20.0
 30
0.0
 11
20.0
 21
470.000564
 31
0.0
  0
LINE
  5
94
330
8E
100
AcDbEntity
  8
CSLAYER2
  6
CONTINUOUS
 62
     3
100
AcDbLine
 10
20.0
 20
470.000564
 30
0.0
 11
1120.000766
 21
470.000564
 31
0.0
  0
LINE
  5
95
330
8E
100
AcDbEntity
  8
CSLAYER2
  6
CONTINUOUS
 62
     3
100
AcDbLine
 10
1120.000766
 20
470.000564
 30
0.0
 11
1120.000766
 21
20.0
 31
0.0
  0
LINE
  5
96
330
8E
100
AcDbEntity
  8
CSLAYER2
  6
CONTINUOUS
 62
     3
100
AcDbLine
 10
235.000111
 20
20.0
 30
0.0
 11
20.0
 21
20.0
 31
0.0
  0
LINE
  5
97
330
8E
100
AcDbEntity
  8
CSLAYER2
  6
CONTINUOUS
 62
     3
100
AcDbLine
 10
20.0
 20
20.0
 30
0.0
 11
20.0
 21
470.000564
 31
0.0
  0
LINE
  5
98
330
8E
100
AcDbEntity
  8
CSLAYER2
  6
CONTINUOUS
 62
     3
100
AcDbLine
 10
20.0
 20
470.000564
 30
0.0
 11
235.000111
 21
470.000564
 31
0.0
  0
LINE
  5
99
330
8E
100
AcDbEntity
  8
CSLAYER2
  6
CONTINUOUS
 62
     3
100
AcDbLine
 10
235.000111
 20
470.000564
 30
0.0
 11
235.000111
 21
20.0
 31
0.0
  0
LINE
  5
9A
330
8E
100
AcDbEntity
  8
CSLAYER2
  6
CONTINUOUS
 62
     3
100
AcDbLine
 10
675.500128
 20
20.0
 30
0.0
 11
238.499985
 21
20.0
 31
0.0
  0
LINE
  5
9B
330
8E
100
AcDbEntity
  8
CSLAYER2
  6
CONTINUOUS
 62
     3
100
AcDbLine
 10
238.499985
 20
20.0
 30
0.0
 11
238.499985
 21
470.000564
 31
0.0
  0
LINE
  5
9C
330
8E
100
AcDbEntity
  8
CSLAYER2
  6
CONTINUOUS
 62
     3
100
AcDbLine
 10
238.499985
 20
470.000564
 30
0.0
 11
675.500128
 21
470.000564
 31
0.0
  0
LINE
  5
9D
330
8E
100
AcDbEntity
  8
CSLAYER2
  6
CONTINUOUS
 62
     3
100
AcDbLine
 10
675.500128
 20
470.000564
 30
0.0
 11
675.500128
 21
20.0
 31
0.0
  0
LINE
  5
9E
330
8E
100
AcDbEntity
  8
CSLAYER2
  6
CONTINUOUS
 62
     3
100
AcDbLine
 10
1120.000766
 20
20.0
 30
0.0
 11
679.000348
 21
20.0
 31
0.0
  0
LINE
  5
9F
330
8E
100
AcDbEntity
  8
CSLAYER2
  6
CONTINUOUS
 62
     3
100
AcDbLine
 10
679.000348
 20
20.0
 30
0.0
 11
679.000348
 21
470.000564
 31
0.0
  0
LINE
  5
A0
330
8E
100
AcDbEntity
  8
CSLAYER2
  6
CONTINUOUS
 62
     3
100
AcDbLine
 10
679.000348
 20
470.000564
 30
0.0
 11
1120.000766
 21
470.000564
 31
0.0
  0
LINE
  5
A1
330
8E
100
AcDbEntity
  8
CSLAYER2
  6
CONTINUOUS
 62
     3
100
AcDbLine
 10
1120.000766
 20
470.000564
 30
0.0
 11
1120.000766
 21
20.0
 31
0.0
  0
ENDBLK
  5
90
330
8E
100
AcDbEntity
  8
0
100
AcDbBlockEnd
  0
BLOCK
  5
A3
330
A2
100
AcDbEntity
  8
0
100
AcDbBlockBegin
  2
BLKF015
 70
     0
 10
0.0
 20
0.0
 30
0.0
  3
BLKF015
  1

  0
LINE
  5
A6
330
A2
100
AcDbEntity
  8
CSLAYER2
  6
CONTINUOUS
 62
     3
100
AcDbLine
 10
1600.307683
 20
40.000171
 30
0.0
 11
1317.307371
 21
40.000171
 31
0.0
  0
LINE
  5
A7
330
A2
100
AcDbEntity
  8
CSLAYER2
  6
CONTINUOUS
 62
     3
100
AcDbLine
 10
1317.307371
 20
40.000171
 30
0.0
 11
1317.307371
 21
470.000392
 31
0.0
  0
LINE
  5
A8
330
A2
100
AcDbEntity
  8
CSLAYER2
  6
CONTINUOUS
 62
     3
100
AcDbLine
 10
1317.307371
 20
470.000392
 30
0.0
 11
1600.307683
 21
470.000392
 31
0.0
  0
LINE
  5
A9
330
A2
100
AcDbEntity
  8
CSLAYER2
  6
CONTINUOUS
 62
     3
100
AcDbLine
 10
1600.307683
 20
470.000392
 30
0.0
 11
1600.307683
 21
40.000171
 31
0.0
  0
LINE
  5
AA
330
A2
100
AcDbEntity
  8
CSLAYER2
  6
CONTINUOUS
 62
     3
100
AcDbLine
 10
1317.307371
 20
20.000345
 30
0.0
 11
1300.307192
 21
20.000345
 31
0.0
  0
LINE
  5
AB
330
A2
100
AcDbEntity
  8
CSLAYER2
  6
CONTINUOUS
 62
     3
100
AcDbLine
 10
1300.307192
 20
20.000345
 30
0.0
 11
1300.307192
 21
470.000392
 31
0.0
  0
LINE
  5
AC
330
A2
100
AcDbEntity
  8
CSLAYER2
  6
CONTINUOUS
 62
     3
100
AcDbLine
 10
1300.307192
 20
470.000392
 30
0.0
 11
1317.307371
 21
470.000392
 31
0.0
  0
LINE
  5
AD
330
A2
100
AcDbEntity
  8
CSLAYER2
  6
CONTINUOUS
 62
     3
100
AcDbLine
 10
1317.307371
 20
470.000392
 30
0.0
 11
1317.307371
 21
20.000345
 31
0.0
  0
ENDBLK
  5
A4
330
A2
100
AcDbEntity
  8
0
100
AcDbBlockEnd
  0
BLOCK
  5
AF
330
AE
100
AcDbEntity
  8
0
100
AcDbBlockBegin
  2
BLKF016
 70
     0
 10
0.0
 20
0.0
 30
0.0
  3
BLKF016
  1

  0
LINE
  5
B2
330
AE
100
AcDbEntity
  8
CSLAYER2
  6
CONTINUOUS
 62
     3
100
AcDbLine
 10
1120.000766
 20
588.229946
 30
0.0
 11
20.0
 21
588.229946
 31
0.0
  0
LINE
  5
B3
330
AE
100
AcDbEntity
  8
CSLAYER2
  6
CONTINUOUS
 62
     3
100
AcDbLine
 10
20.0
 20
588.229946
 30
0.0
 11
20.0
 21
871.230257
 31
0.0
  0
LINE
  5
B4
330
AE
100
AcDbEntity
  8
CSLAYER2
  6
CONTINUOUS
 62
     3
100
AcDbLine
 10
20.0
 20
871.230257
 30
0.0
 11
1120.000766
 21
871.230257
 31
0.0
  0
LINE
  5
B5
330
AE
100
AcDbEntity
  8
CSLAYER2
  6
CONTINUOUS
 62
     3
100
AcDbLine
 10
1120.000766
 20
871.230257
 30
0.0
 11
1120.000766
 21
588.229946
 31
0.0
  0
ENDBLK
  5
B0
330
AE
100
AcDbEntity
  8
0
100
AcDbBlockEnd
  0
BLOCK
  5
B7
330
B6
100
AcDbEntity
  8
0
100
AcDbBlockBegin
  2
BLKF017
 70
     0
 10
0.0
 20
0.0
 30
0.0
  3
BLKF017
  1

  0
LINE
  5
BA
330
B6
100
AcDbEntity
  8
CSLAYER2
  6
CONTINUOUS
 62
     3
100
AcDbLine
 10
1120.000766
 20
571.230111
 30
0.0
 11
20.0
 21
571.230111
 31
0.0
  0
LINE
  5
BB
330
B6
100
AcDbEntity
  8
CSLAYER2
  6
CONTINUOUS
 62
     3
100
AcDbLine
 10
20.0
 20
571.230111
 30
0.0
 11
20.0
 21
588.229946
 31
0.0
  0
LINE
  5
BC
330
B6
100
AcDbEntity
  8
CSLAYER2
  6
CONTINUOUS
 62
     3
100
AcDbLine
 10
20.0
 20
588.229946
 30
0.0
 11
1120.000766
 21
588.229946
 31
0.0
  0
LINE
  5
BD
330
B6
100
AcDbEntity
  8
CSLAYER2
  6
CONTINUOUS
 62
     3
100
AcDbLine
 10
1120.000766
 20
588.229946
 30
0.0
 11
1120.000766
 21
571.230111
 31
0.0
  0
LINE
  5
BE
330
B6
100
AcDbEntity
  8
CSLAYER2
  6
CONTINUOUS
 62
     3
100
AcDbLine
 10
235.000111
 20
571.230111
 30
0.0
 11
20.0
 21
571.230111
 31
0.0
  0
LINE
  5
BF
330
B6
100
AcDbEntity
  8
CSLAYER2
  6
CONTINUOUS
 62
     3
100
AcDbLine
 10
20.0
 20
571.230111
 30
0.0
 11
20.0
 21
588.229946
 31
0.0
  0
LINE
  5
C0
330
B6
100
AcDbEntity
  8
CSLAYER2
  6
CONTINUOUS
 62
     3
100
AcDbLine
 10
20.0
 20
588.229946
 30
0.0
 11
235.000111
 21
588.229946
 31
0.0
  0
LINE
  5
C1
330
B6
100
AcDbEntity
  8
CSLAYER2
  6
CONTINUOUS
 62
     3
100
AcDbLine
 10
235.000111
 20
588.229946
 30
0.0
 11
235.000111
 21
571.230111
 31
0.0
  0
LINE
  5
C2
330
B6
100
AcDbEntity
  8
CSLAYER2
  6
CONTINUOUS
 62
     3
100
AcDbLine
 10
675.500128
 20
571.230111
 30
0.0
 11
238.499985
 21
571.230111
 31
0.0
  0
LINE
  5
C3
330
B6
100
AcDbEntity
  8
CSLAYER2
  6
CONTINUOUS
 62
     3
100
AcDbLine
 10
238.499985
 20
571.230111
 30
0.0
 11
238.499985
 21
588.229946
 31
0.0
  0
LINE
  5
C4
330
B6
100
AcDbEntity
  8
CSLAYER2
  6
CONTINUOUS
 62
     3
100
AcDbLine
 10
238.499985
 20
588.229946
 30
0.0
 11
675.500128
 21
588.229946
 31
0.0
  0
LINE
  5
C5
330
B6
100
AcDbEntity
  8
CSLAYER2
  6
CONTINUOUS
 62
     3
100
AcDbLine
 10
675.500128
 20
588.229946
 30
0.0
 11
675.500128
 21
571.230111
 31
0.0
  0
LINE
  5
C6
330
B6
100
AcDbEntity
  8
CSLAYER2
  6
CONTINUOUS
 62
     3
100
AcDbLine
 10
1120.000766
 20
571.230111
 30
0.0
 11
679.000348
 21
571.230111
 31
0.0
  0
LINE
  5
C7
330
B6
100
AcDbEntity
  8
CSLAYER2
  6
CONTINUOUS
 62
     3
100
AcDbLine
 10
679.000348
 20
571.230111
 30
0.0
 11
679.000348
 21
588.229946
 31
0.0
  0
LINE
  5
C8
330
B6
100
AcDbEntity
  8
CSLAYER2
  6
CONTINUOUS
 62
     3
100
AcDbLine
 10
679.000348
 20
588.229946
 30
0.0
 11
1120.000766
 21
588.229946
 31
0.0
  0
LINE
  5
C9
330
B6
100
AcDbEntity
  8
CSLAYER2
  6
CONTINUOUS
 62
     3
100
AcDbLine
 10
1120.000766
 20
588.229946
 30
0.0
 11
1120.000766
 21
571.230111
 31
0.0
  0
ENDBLK
  5
B8
330
B6
100
AcDbEntity
  8
0
100
AcDbBlockEnd
  0
ENDSEC
  0
SECTION
  2
ENTITIES
  0
INSERT
  5
91
330
1F
100
AcDbEntity
  8
0
100
AcDbBlockReference
  2
BLKF014
 10
0.0
 20
0.0
 30
0.0
  0
INSERT
  5
A5
330
1F
100
AcDbEntity
  8
0
100
AcDbBlockReference
  2
BLKF015
 10
0.0
 20
0.0
 30
0.0
  0
INSERT
  5
B1
330
1F
100
AcDbEntity
  8
0
100
AcDbBlockReference
  2
BLKF016
 10
0.0
 20
0.0
 30
0.0
  0
INSERT
  5
B9
330
1F
100
AcDbEntity
  8
0
100
AcDbBlockReference
  2
BLKF017
 10
0.0
 20
0.0
 30
0.0
  0
ENDSEC
  0
SECTION
  2
OBJECTS
  0
DICTIONARY
  5
C
330
0
100
AcDbDictionary
  3
ACAD_GROUP
350
D
  3
ACAD_LAYOUT
350
1A
  3
ACAD_MATERIAL
350
3B
  3
ACAD_MLEADERSTYLE
350
CC
  3
ACAD_MLINESTYLE
350
17
  3
ACAD_PLOTSETTINGS
350
19
  3
ACAD_VISUALSTYLE
350
2A
  3
ACDBVARIABLEDICTIONARY
350
CA
1001
ACAD
1000
TREAT_AS_HARD
1070
     0
  0
DICTIONARY
  5
D
102
{ACAD_REACTORS
330
C
102
}
330
C
100
AcDbDictionary
1001
ACAD
1000
TREAT_AS_HARD
1070
     0
  0
DICTIONARY
  5
1A
102
{ACAD_REACTORS
330
C
102
}
330
C
100
AcDbDictionary
1001
ACAD
1000
TREAT_AS_HARD
1070
     0
  0
DICTIONARY
  5
3B
102
{ACAD_REACTORS
330
C
102
}
330
C
100
AcDbDictionary
  3
BYBLOCK
350
3D
  3
BYLAYER
350
3C
  3
GLOBAL
350
3E
1001
ACAD
1000
TREAT_AS_HARD
1070
     0
  0
DICTIONARY
  5
CC
102
{ACAD_REACTORS
330
C
102
}
330
C
100
AcDbDictionary
1001
ACAD
1000
TREAT_AS_HARD
1070
     0
  0
DICTIONARY
  5
17
102
{ACAD_REACTORS
330
C
102
}
330
C
100
AcDbDictionary
  3
STANDARD
350
18
1001
ACAD
1000
TREAT_AS_HARD
1070
     0
  0
DICTIONARY
  5
19
102
{ACAD_REACTORS
330
C
102
}
330
C
100
AcDbDictionary
1001
ACAD
1000
TREAT_AS_HARD
1070
     0
  0
DICTIONARY
  5
2A
102
{ACAD_REACTORS
330
C
102
}
330
C
100
AcDbDictionary
  3
2DWIREFRAME
350
2F
  3
3D_HIDDEN
350
31
  3
3DWIREFRAME
350
30
  3
BASIC
350
32
  3
BRIGHTEN
350
36
  3
COLORCHANGE
350
3A
  3
CONCEPTUAL
350
34
  3
DIM
350
35
  3
FACEPATTERN
350
39
  3
FLAT
350
2B
  3
FLATWITHEDGES
350
2C
  3
GOURAUD
350
2D
  3
GOURAUDWITHEDGES
350
2E
  3
LINEPATTERN
350
38
  3
REALISTIC
350
33
  3
THICKEN
350
37
1001
ACAD
1000
TREAT_AS_HARD
1070
     0
  0
DICTIONARY
  5
CA
102
{ACAD_REACTORS
330
C
102
}
330
C
100
AcDbDictionary
  3
DIMASSOC
350
CF
  3
HIDETEXT
350
D0
  3
PSOLHEIGHT
350
CE
  3
PSOLWIDTH
350
CD
1001
ACAD
1000
TREAT_AS_HARD
1070
     0
  0
MATERIAL
  5
3D
102
{ACAD_REACTORS
330
3B
102
}
102
{ACAD_XDICTIONARY
360
D3
102
}
330
3B
100
AcDbMaterial
  1
ByBlock
  0
MATERIAL
  5
3C
102
{ACAD_REACTORS
330
3B
102
}
102
{ACAD_XDICTIONARY
360
D1
102
}
330
3B
100
AcDbMaterial
  1
ByLayer
  0
MATERIAL
  5
3E
102
{ACAD_REACTORS
330
3B
102
}
102
{ACAD_XDICTIONARY
360
D5
102
}
330
3B
100
AcDbMaterial
  1
Global
  0
MLINESTYLE
  5
18
102
{ACAD_REACTORS
330
17
102
}
330
17
100
AcDbMlineStyle
  2
Standard
 70
     0
  3

 62
   256
 51
90.0
 52
90.0
 71
     2
 49
0.5
 62
   256
  6
BYLAYER
 49
-0.5
 62
   256
  6
BYLAYER
  0
ACAD_PROXY_OBJECT
  5
2F
102
{ACAD_REACTORS
330
2A
102
}
330
2A
100
AcDbZombieObject
 90
      499
 91
      501
 93
      436
310
42CC9915DA5C99599C985B595049028333333333333E3BF0000000000000FB0107901411070040501600405405064090741402480A0340
1001
ACAD
1000
AcDbSavedByObjectVersion
1070
     0
  0
ACAD_PROXY_OBJECT
  5
31
102
{ACAD_REACTORS
330
2A
102
}
330
2A
100
AcDbZombieObject
 90
      499
 91
      501
 93
      500
310
424CD108121A5919195B90640502408333333333333E3BF0000000000000FB01079024090700405020000000000001110200405405064090740C02480A0340
1001
ACAD
1000
AcDbSavedByObjectVersion
1070
     0
  0
ACAD_PROXY_OBJECT
  5
30
102
{ACAD_REACTORS
330
2A
102
}
330
2A
100
AcDbZombieObject
 90
      499
 91
      501
 93
      436
310
42CCD915DA5C99599C985B595059028333333333333E3BF0000000000000FB0107901411070040501600405405064090741402480A0340
1001
ACAD
1000
AcDbSavedByObjectVersion
1070
     0
  0
ACAD_PROXY_OBJECT
  5
32
102
{ACAD_REACTORS
330
2A
102
}
330
2A
100
AcDbZombieObject
 90
      499
 91
      501
 93
      388
310
4150985CDA58D07406404333333333333E3BF0000000000000FB0107A41107004050150841D405064090741402480A0350
1001
ACAD
1000
AcDbSavedByObjectVersion
1070
     0
  0
ACAD_PROXY_OBJECT
  5
36
102
{ACAD_REACTORS
330
2A
102
}
330
2A
100
AcDbZombieObject
 90
      499
 91
      501
 93
      428
310
42109C9A59DA1D195B90C409028333333333333E3BF0000000000000FB010790141107004050150841D405064090741402480A029950
1001
ACAD
1000
AcDbSavedByObjectVersion
1070
     0
  0
ACAD_PROXY_OBJECT
  5
3A
102
{ACAD_REACTORS
330
2A
102
}
330
2A
100
AcDbZombieObject
 90
      499
 91
      501
 93
      452
310
42D0DBDB1BDC90DA185B99D95104090240C333333333333E3BF0000000000000FB0108901411070040501508421405064090741402480A0350
1001
ACAD
1000
AcDbSavedByObjectVersion
1070
     0
  0
ACAD_PROXY_OBJECT
  5
34
102
{ACAD_REACTORS
330
2A
102
}
330
2A
100
AcDbZombieObject
 90
      499
 91
      501
 93
      500
310
4290DBDB98D95C1D1D585B10940D028333333333333E3BF0000000000000FB0107902409070040501000000000000111010841D405064090740C02480A0340
1001
ACAD
1000
AcDbSavedByObjectVersion
1070
     0
  0
ACAD_PROXY_OBJECT
  5
35
102
{ACAD_REACTORS
330
2A
102
}
330
2A
100
AcDbZombieObject
 90
      499
 91
      501
 93
      412
310
40D11A5B50B409028333333333333E3BF0000000000000FB010790141107004050150841D405064090741402480A02677FFFFFD0
1001
ACAD
1000
AcDbSavedByObjectVersion
1070
     0
  0
ACAD_PROXY_OBJECT
  5
39
102
{ACAD_REACTORS
330
2A
102
}
330
2A
100
AcDbZombieObject
 90
      499
 91
      501
 93
      444
310
42D19858D95C185D1D195C9B90F409028333333333333E3BF0000000000000FB010790141107004050150841D405064090741402480A0350
1001
ACAD
1000
AcDbSavedByObjectVersion
1070
     0
  0
ACAD_PROXY_OBJECT
  5
2B
102
{ACAD_REACTORS
330
2A
102
}
330
2A
100
AcDbZombieObject
 90
      499
 91
      501
 93
      388
310
41119B185D240901404333333333333E3BF0000000000000F9010740A41107004050150841D405064090741402480A1B50
1001
ACAD
1000
AcDbSavedByObjectVersion
1070
     0
  0
ACAD_PROXY_OBJECT
  5
2C
102
{ACAD_REACTORS
330
2A
102
}
330
2A
100
AcDbZombieObject
 90
      499
 91
      501
 93
      476
310
43519B185D15DA5D1A115919D95CD0140901404333333333333E3BF0000000000000F9010740901411070040501600405405064090741402480A1B50
1001
ACAD
1000
AcDbSavedByObjectVersion
1070
     0
  0
ACAD_PROXY_OBJECT
  5
2D
102
{ACAD_REACTORS
330
2A
102
}
330
2A
100
AcDbZombieObject
 90
      499
 91
      501
 93
      412
310
41D1DBDD5C985D5910240902404333333333333E3BF0000000000000F9010740A411070040501641D405064090741402480A1B50
1001
ACAD
1000
AcDbSavedByObjectVersion
1070
     0
  0
ACAD_PROXY_OBJECT
  5
2E
102
{ACAD_REACTORS
330
2A
102
}
330
2A
100
AcDbZombieObject
 90
      499
 91
      501
 93
      500
310
4411DBDD5C985D5915DA5D1A115919D95CD0340902404333333333333E3BF0000000000000F9010740901411070040501600405405064090741402480A1B50
1001
ACAD
1000
AcDbSavedByObjectVersion
1070
     0
  0
ACAD_PROXY_OBJECT
  5
38
102
{ACAD_REACTORS
330
2A
102
}
330
2A
100
AcDbZombieObject
 90
      499
 91
      501
 93
      444
310
42D31A5B995C185D1D195C9B90E409028333333333333E3BF0000000000000FB010790141107004050750841D405064090741402483A0350
1001
ACAD
1000
AcDbSavedByObjectVersion
1070
     0
  0
ACAD_PROXY_OBJECT
  5
33
102
{ACAD_REACTORS
330
2A
102
}
330
2A
100
AcDbZombieObject
 90
      499
 91
      501
 93
      420
310
425499585B1A5CDD1A58D08409028333333333333E3BF0000000000000FB01079019070040501508421405064090741402480A1B40
1001
ACAD
1000
AcDbSavedByObjectVersion
1070
     0
  0
ACAD_PROXY_OBJECT
  5
37
102
{ACAD_REACTORS
330
2A
102
}
330
2A
100
AcDbZombieObject
 90
      499
 91
      501
 93
      412
310
41D51A1A58DAD95B90D409028333333333333E3BF0000000000000FB010790141107004050150C41D405064090741402480A0350
1001
ACAD
1000
AcDbSavedByObjectVersion
1070
     0
  0
DICTIONARYVAR
  5
CF
102
{ACAD_REACTORS
330
CA
102
}
330
CA
100
DictionaryVariables
280
     0
  1
2
  0
DICTIONARYVAR
  5
D0
102
{ACAD_REACTORS
330
CA
102
}
330
CA
100
DictionaryVariables
280
     0
  1
1
  0
DICTIONARYVAR
  5
CE
102
{ACAD_REACTORS
330
CA
102
}
330
CA
100
DictionaryVariables
280
     0
  1
80.000000
  0
DICTIONARYVAR
  5
CD
102
{ACAD_REACTORS
330
CA
102
}
330
CA
100
DictionaryVariables
280
     0
  1
5.000000
  0
DICTIONARY
  5
D3
330
3D
100
AcDbDictionary
  3
ACAD_XREC_ROUNDTRIP
360
D4
1001
ACAD
1000
TREAT_AS_HARD
1070
     1
  0
DICTIONARY
  5
D1
330
3C
100
AcDbDictionary
  3
ACAD_XREC_ROUNDTRIP
360
D2
1001
ACAD
1000
TREAT_AS_HARD
1070
     1
  0
DICTIONARY
  5
D5
330
3E
100
AcDbDictionary
  3
ACAD_XREC_ROUNDTRIP
360
D6
1001
ACAD
1000
TREAT_AS_HARD
1070
     1
  0
XRECORD
  5
D4
102
{ACAD_REACTORS
330
D3
102
}
330
D3
100
AcDbXrecord
102
MATERIAL
148
0.0
149
0.0
149
0.0
 93
        0
 94
      127
282
     0
 72
     1
 77
     1
171
     1
175
     1
179
     1
273
     0
  0
XRECORD
  5
D2
102
{ACAD_REACTORS
330
D1
102
}
330
D1
100
AcDbXrecord
102
MATERIAL
148
0.0
149
0.0
149
0.0
 93
        0
 94
      127
282
     0
 72
     1
 77
     1
171
     1
175
     1
179
     1
273
     0
  0
XRECORD
  5
D6
102
{ACAD_REACTORS
330
D5
102
}
330
D5
100
AcDbXrecord
102
MATERIAL
148
0.0
149
0.0
149
0.0
 93
        0
 94
      127
282
     0
 72
     1
 77
     1
171
     1
175
     1
179
     1
273
     0
  0
ENDSEC
  0
EOF
