  0
SECTION
  2
HEADER
  9
$ACADVER
  1
AC1012
  9
$DWGCODEPAGE
  3
ansi_932
  9
$INSBASE
 10
0.0
 20
0.0
 30
0.0
  9
$EXTMIN
 10
0.0
 20
0.0
 30
0.0
  9
$EXTMAX
 10
1755.001359
 20
1415.368808
 30
0.0
  9
$LIMMIN
 10
0.0
 20
0.0
  9
$LIMMAX
 10
1755.001359
 20
1415.368808
  9
$ORTHOMODE
 70
     0
  9
$REGENMODE
 70
     1
  9
$FILLMODE
 70
     1
  9
$QTEXTMODE
 70
     0
  9
$MIRRTEXT
 70
     1
  9
$DRAGMODE
 70
     2
  9
$LTSCALE
 40
1.0
  9
$OSMODE
 70
    37
  9
$ATTMODE
 70
     1
  9
$TEXTSIZE
 40
0.2
  9
$TRACEWID
 40
1.0
  9
$TEXTSTYLE
  7
ED_VECTOR
  9
$CLAYER
  8
0
  9
$CELTYPE
  6
BYLAYER
  9
$CECOLOR
 62
   256
  9
$CELTSCALE
 40
1.0
  9
$DELOBJ
 70
     1
  9
$DISPSILH
 70
     0
  9
$DIMSCALE
 40
1.0
  9
$DIMASZ
 40
3.0
  9
$DIMEXO
 40
1.0
  9
$DIMDLI
 40
10.0
  9
$DIMRND
 40
0.0
  9
$DIMDLE
 40
5.0
  9
$DIMEXE
 40
1.0
  9
$DIMTP
 40
0.0
  9
$DIMTM
 40
0.0
  9
$DIMTXT
 40
4.0
  9
$DIMCEN
 40
2.5
  9
$DIMTSZ
 40
0.0
  9
$DIMTOL
 70
     0
  9
$DIMLIM
 70
     0
  9
$DIMTIH
 70
     0
  9
$DIMTOH
 70
     0
  9
$DIMSE1
 70
     0
  9
$DIMSE2
 70
     0
  9
$DIMTAD
 70
     1
  9
$DIMZIN
 70
     8
  9
$DIMBLK
  1

  9
$DIMASO
 70
     1
  9
$DIMSHO
 70
     1
  9
$DIMPOST
  1

  9
$DIMAPOST
  1

  9
$DIMALT
 70
     0
  9
$DIMALTD
 70
     3
  9
$DIMALTF
 40
0.03937
  9
$DIMLFAC
 40
1.0
  9
$DIMTOFL
 70
     1
  9
$DIMTVP
 40
0.0
  9
$DIMTIX
 70
     0
  9
$DIMSOXD
 70
     0
  9
$DIMSAH
 70
     1
  9
$DIMBLK1
  1
EDTIP_ARROW_S
  9
$DIMBLK2
  1
EDTIP_ARROW_E
  9
$DIMSTYLE
  2
EDDIMINFO
  9
$DIMCLRD
 70
     7
  9
$DIMCLRE
 70
     7
  9
$DIMCLRT
 70
     7
  9
$DIMTFAC
 40
1.0
  9
$DIMGAP
 40
1.0
  9
$DIMJUST
 70
     0
  9
$DIMSD1
 70
     0
  9
$DIMSD2
 70
     0
  9
$DIMTOLJ
 70
     0
  9
$DIMTZIN
 70
     8
  9
$DIMALTZ
 70
     0
  9
$DIMALTTZ
 70
     0
  9
$DIMFIT
 70
     3
  9
$DIMUPT
 70
     0
  9
$DIMUNIT
 70
     2
  9
$DIMDEC
 70
     2
  9
$DIMTDEC
 70
     2
  9
$DIMALTU
 70
     2
  9
$DIMALTTD
 70
     3
  9
$DIMTXSTY
  7
ED_VECTOR
  9
$DIMAUNIT
 70
     0
  9
$LUNITS
 70
     2
  9
$LUPREC
 70
     4
  9
$SKETCHINC
 40
1.0
  9
$FILLETRAD
 40
10.0
  9
$AUNITS
 70
     0
  9
$AUPREC
 70
     0
  9
$MENU
  1
.
  9
$ELEVATION
 40
0.0
  9
$PELEVATION
 40
0.0
  9
$THICKNESS
 40
0.0
  9
$LIMCHECK
 70
     0
  9
$CHAMFERA
 40
10.0
  9
$CHAMFERB
 40
10.0
  9
$CHAMFERC
 40
20.0
  9
$CHAMFERD
 40
0.0
  9
$SKPOLY
 70
     0
  9
$TDCREATE
 40
2458998.501499803
  9
$TDUPDATE
 40
2458998.501500046
  9
$TDINDWG
 40
0.0000000116
  9
$TDUSRTIMER
 40
0.0000000116
  9
$USRTIMER
 70
     1
  9
$ANGBASE
 50
0.0
  9
$ANGDIR
 70
     0
  9
$PDMODE
 70
     0
  9
$PDSIZE
 40
0.0
  9
$PLINEWID
 40
0.0
  9
$COORDS
 70
     1
  9
$SPLFRAME
 70
     0
  9
$SPLINETYPE
 70
     6
  9
$SPLINESEGS
 70
     8
  9
$ATTDIA
 70
     0
  9
$ATTREQ
 70
     1
  9
$HANDLING
 70
     1
  9
$HANDSEED
  5
2EA
  9
$SURFTAB1
 70
     6
  9
$SURFTAB2
 70
     6
  9
$SURFTYPE
 70
     6
  9
$SURFU
 70
     6
  9
$SURFV
 70
     6
  9
$UCSNAME
  2

  9
$UCSORG
 10
0.0
 20
0.0
 30
0.0
  9
$UCSXDIR
 10
1.0
 20
0.0
 30
0.0
  9
$UCSYDIR
 10
0.0
 20
1.0
 30
0.0
  9
$PUCSNAME
  2

  9
$PUCSORG
 10
0.0
 20
0.0
 30
0.0
  9
$PUCSXDIR
 10
1.0
 20
0.0
 30
0.0
  9
$PUCSYDIR
 10
0.0
 20
1.0
 30
0.0
  9
$USERI1
 70
     0
  9
$USERI2
 70
     0
  9
$USERI3
 70
     0
  9
$USERI4
 70
     0
  9
$USERI5
 70
     0
  9
$USERR1
 40
0.0
  9
$USERR2
 40
0.0
  9
$USERR3
 40
0.0
  9
$USERR4
 40
0.0
  9
$USERR5
 40
0.0
  9
$WORLDVIEW
 70
     1
  9
$SHADEDGE
 70
     3
  9
$SHADEDIF
 70
    70
  9
$TILEMODE
 70
     1
  9
$MAXACTVP
 70
    64
  9
$PINSBASE
 10
0.0
 20
0.0
 30
0.0
  9
$PLIMCHECK
 70
     0
  9
$PEXTMIN
 10
1.000000E+20
 20
1.000000E+20
 30
1.000000E+20
  9
$PEXTMAX
 10
-1.000000E+20
 20
-1.000000E+20
 30
-1.000000E+20
  9
$PLIMMIN
 10
0.0
 20
0.0
  9
$PLIMMAX
 10
420.0
 20
297.0
  9
$UNITMODE
 70
     0
  9
$VISRETAIN
 70
     1
  9
$PLINEGEN
 70
     0
  9
$PSLTSCALE
 70
     1
  9
$TREEDEPTH
 70
  3020
  9
$PICKSTYLE
 70
     1
  9
$CMLSTYLE
  2
STANDARD
  9
$CMLJUST
 70
     0
  9
$CMLSCALE
 40
20.0
  9
$SAVEIMAGES
 70
     1
  0
ENDSEC
  0
SECTION
  2
CLASSES
  0
CLASS
  1
ACDBDICTIONARYWDFLT
  2
AcDbDictionaryWithDefault
  3
ObjectDBX Classes
 90
    32768
280
     0
281
     0
  0
CLASS
  1
VISUALSTYLE
  2
AcDbVisualStyle
  3
ObjectDBX Classes
 90
     4095
280
     0
281
     0
  0
CLASS
  1
MATERIAL
  2
AcDbMaterial
  3
ObjectDBX Classes
 90
     1153
280
     0
281
     0
  0
CLASS
  1
DICTIONARYVAR
  2
AcDbDictionaryVar
  3
ObjectDBX Classes
 90
        0
280
     0
281
     0
  0
CLASS
  1
XRECORD
  2
AcDbXrecord
  3
AutoCAD 2000
 90
    32768
280
     0
281
     0
  0
CLASS
  1
LWPOLYLINE
  2
AcDbPolyline
  3
AutoCAD 2000
 90
    32768
280
     0
281
     1
  0
CLASS
  1
HATCH
  2
AcDbHatch
  3
AutoCAD 2000
 90
    32768
280
     0
281
     1
  0
CLASS
  1
ACDBPLACEHOLDER
  2
AcDbPlaceHolder
  3
ObjectDBX Classes
 90
        0
280
     0
281
     0
  0
CLASS
  1
LAYOUT
  2
AcDbLayout
  3
ObjectDBX Classes
 90
        0
280
     0
281
     0
  0
ENDSEC
  0
SECTION
  2
TABLES
  0
TABLE
  2
VPORT
  5
8
330
0
100
AcDbSymbolTable
 70
     1
  0
VPORT
  5
29
330
8
100
AcDbSymbolTableRecord
100
AcDbViewportTableRecord
  2
*ACTIVE
 70
     0
 10
0.0
 20
0.0
 11
1.0
 21
1.0
 12
877.50068
 22
707.684404
 13
0.0
 23
0.0
 14
10.0
 24
10.0
 15
10.0
 25
10.0
 16
0.0
 26
0.0
 36
1.0
 17
0.0
 27
0.0
 37
0.0
 40
1415.368808
 41
1.23996
 42
50.0
 43
0.0
 44
0.0
 50
0.0
 51
0.0
 71
     0
 72
   100
 73
     1
 74
     3
 75
     0
 76
     0
 77
     0
 78
     0
  0
ENDTAB
  0
TABLE
  2
LTYPE
  5
5
330
0
100
AcDbSymbolTable
 70
     5
  0
LTYPE
  5
14
330
5
100
AcDbSymbolTableRecord
100
AcDbLinetypeTableRecord
  2
BYBLOCK
 70
     0
  3

 72
    65
 73
     0
 40
0.0
  0
LTYPE
  5
15
330
5
100
AcDbSymbolTableRecord
100
AcDbLinetypeTableRecord
  2
BYLAYER
 70
     0
  3

 72
    65
 73
     0
 40
0.0
  0
LTYPE
  5
16
330
5
100
AcDbSymbolTableRecord
100
AcDbLinetypeTableRecord
  2
CONTINUOUS
 70
     0
  3
--------------------
 72
    65
 73
     0
 40
0.0
  0
LTYPE
  5
3F
330
5
100
AcDbSymbolTableRecord
100
AcDbLinetypeTableRecord
  2
DASHED
 70
     0
  3
- - - - - - - - - - -
 72
    65
 73
     2
 40
19.1
 49
12.7
 74
     0
 49
-6.4
 74
     0
  0
LTYPE
  5
40
330
5
100
AcDbSymbolTableRecord
100
AcDbLinetypeTableRecord
  2
CENTER
 70
     0
  3
- ･ - ･ - ･ - ･ - ･ - ･ - ･ - ･ - ･ - ･ -
 72
    65
 73
     4
 40
51.0
 49
31.8
 74
     0
 49
-6.4
 74
     0
 49
6.4
 74
     0
 49
-6.4
 74
     0
  0
LTYPE
  5
41
330
5
100
AcDbSymbolTableRecord
100
AcDbLinetypeTableRecord
  2
PHANTOM
 70
     0
  3
- ･ ･ - ･ ･ - ･ ･ - ･ ･ - ･ ･ - ･ ･ - ･ ･ - 
 72
    65
 73
     6
 40
63.8
 49
31.8
 74
     0
 49
-6.4
 74
     0
 49
6.4
 74
     0
 49
-6.4
 74
     0
 49
6.4
 74
     0
 49
-6.4
 74
     0
  0
LTYPE
  5
42
330
5
100
AcDbSymbolTableRecord
100
AcDbLinetypeTableRecord
  2
DOT
 70
     0
  3
・・・・・・・・・・・・・・・
 72
    65
 73
     2
 40
6.5
 49
0.1
 74
     0
 49
-6.4
 74
     0
  0
ENDTAB
  0
TABLE
  2
LAYER
  5
2
330
0
100
AcDbSymbolTable
 70
    16
  0
LAYER
  5
10
330
2
100
AcDbSymbolTableRecord
100
AcDbLayerTableRecord
  2
0
 70
     0
 62
     3
  6
CONTINUOUS
  0
LAYER
  5
43
330
2
100
AcDbSymbolTableRecord
100
AcDbLayerTableRecord
  2
CSLAYER2
 70
     0
 62
     3
  6
CONTINUOUS
  0
ENDTAB
  0
TABLE
  2
STYLE
  5
3
330
0
100
AcDbSymbolTable
 70
     2
  0
STYLE
  5
11
330
3
100
AcDbSymbolTableRecord
100
AcDbTextStyleTableRecord
  2
STANDARD
 70
     0
 40
0.0
 41
1.0
 50
0.0
 71
     0
 42
2.5
  3
txt
  4

  0
STYLE
  5
52
330
3
100
AcDbSymbolTableRecord
100
AcDbTextStyleTableRecord
  2
ED_VECTOR
 70
     0
 40
0.0
 41
1.0
 50
0.0
 71
     0
 42
0.2
  3
MONOTXT.SHX
  4
BIGFONT.SHX
  0
ENDTAB
  0
TABLE
  2
VIEW
  5
6
330
0
100
AcDbSymbolTable
 70
     0
  0
ENDTAB
  0
TABLE
  2
UCS
  5
7
330
0
100
AcDbSymbolTable
 70
     0
  0
ENDTAB
  0
TABLE
  2
APPID
  5
9
330
0
100
AcDbSymbolTable
 70
     1
  0
APPID
  5
12
330
9
100
AcDbSymbolTableRecord
100
AcDbRegAppTableRecord
  2
ACAD
 70
     0
  0
ENDTAB
  0
TABLE
  2
DIMSTYLE
  5
A
330
0
100
AcDbSymbolTable
 70
     2
  0
DIMSTYLE
105
27
330
A
100
AcDbSymbolTableRecord
100
AcDbDimStyleTableRecord
  2
ISO-25
 70
     0
  3

  4

  5

  6

  7

 40
1.0
 41
2.5
 42
0.625
 43
3.75
 44
1.25
 45
0.0
 46
0.0
 47
0.0
 48
0.0
140
2.5
141
2.5
142
0.0
143
0.03937
144
1.0
145
0.0
146
1.0
147
0.625
 71
     0
 72
     0
 73
     0
 74
     0
 75
     0
 76
     0
 77
     1
 78
     8
170
     0
171
     3
172
     1
173
     0
174
     0
175
     0
176
     0
177
     0
178
     0
270
     2
271
     2
272
     2
273
     2
274
     3
340
11
275
     0
280
     0
281
     0
282
     0
283
     0
284
     8
285
     0
286
     0
287
     3
288
     0
  0
DIMSTYLE
105
8D
330
A
100
AcDbSymbolTableRecord
100
AcDbDimStyleTableRecord
  2
EDDIMINFO
 70
     0
  3

  4

  5

  6
EDTIP_ARROW_S
  7
EDTIP_ARROW_E
 40
1.0
 41
3.0
 42
1.0
 43
10.0
 44
1.0
 45
0.0
 46
5.0
 47
0.0
 48
0.0
140
4.0
141
2.5
142
0.0
143
0.03937
144
1.0
145
0.0
146
1.0
147
1.0
 71
     0
 72
     0
 73
     0
 74
     0
 75
     0
 76
     0
 77
     1
 78
     8
170
     0
171
     3
172
     1
173
     1
174
     0
175
     0
176
     7
177
     7
178
     7
179
     2
270
     2
271
     2
272
     2
273
     2
274
     3
340
52
275
     0
280
     0
281
     0
282
     0
283
     0
284
     8
285
     0
286
     0
287
     3
288
     0
  0
ENDTAB
  0
TABLE
  2
BLOCK_RECORD
  5
1
330
0
100
AcDbSymbolTable
 70
    14
  0
BLOCK_RECORD
  5
1F
330
1
100
AcDbSymbolTableRecord
100
AcDbBlockTableRecord
  2
*MODEL_SPACE
  0
BLOCK_RECORD
  5
1B
330
1
100
AcDbSymbolTableRecord
100
AcDbBlockTableRecord
  2
*PAPER_SPACE
  0
BLOCK_RECORD
  5
53
330
1
100
AcDbSymbolTableRecord
100
AcDbBlockTableRecord
  2
EDTIP_ARROW_S
  0
BLOCK_RECORD
  5
59
330
1
100
AcDbSymbolTableRecord
100
AcDbBlockTableRecord
  2
EDTIP_ARROW_E
  0
BLOCK_RECORD
  5
5F
330
1
100
AcDbSymbolTableRecord
100
AcDbBlockTableRecord
  2
EDTIP_BLACKDOT_S
  0
BLOCK_RECORD
  5
65
330
1
100
AcDbSymbolTableRecord
100
AcDbBlockTableRecord
  2
EDTIP_BLACKDOT_E
  0
BLOCK_RECORD
  5
6B
330
1
100
AcDbSymbolTableRecord
100
AcDbBlockTableRecord
  2
EDTIP_ARCHITECT_S
  0
BLOCK_RECORD
  5
71
330
1
100
AcDbSymbolTableRecord
100
AcDbBlockTableRecord
  2
EDTIP_ARCHITECT_E
  0
BLOCK_RECORD
  5
77
330
1
100
AcDbSymbolTableRecord
100
AcDbBlockTableRecord
  2
EDTIP_CIVIL_S
  0
BLOCK_RECORD
  5
7D
330
1
100
AcDbSymbolTableRecord
100
AcDbBlockTableRecord
  2
EDTIP_CIVIL_E
  0
BLOCK_RECORD
  5
83
330
1
100
AcDbSymbolTableRecord
100
AcDbBlockTableRecord
  2
EDTIP_WHITEDOT_S
  0
BLOCK_RECORD
  5
88
330
1
100
AcDbSymbolTableRecord
100
AcDbBlockTableRecord
  2
EDTIP_WHITEDOT_E
  0
BLOCK_RECORD
  5
8E
330
1
100
AcDbSymbolTableRecord
100
AcDbBlockTableRecord
  2
BLKF014
  0
BLOCK_RECORD
  5
2C1
330
1
100
AcDbSymbolTableRecord
100
AcDbBlockTableRecord
  2
BLKF015
  0
BLOCK_RECORD
  5
2D5
330
1
100
AcDbSymbolTableRecord
100
AcDbBlockTableRecord
  2
BLKF016
  0
ENDTAB
  0
ENDSEC
  0
SECTION
  2
BLOCKS
  0
BLOCK
  5
20
330
1F
100
AcDbEntity
  8
0
100
AcDbBlockBegin
  2
*MODEL_SPACE
 70
     0
 10
0.0
 20
0.0
 30
0.0
  3
*MODEL_SPACE
  1

  0
ENDBLK
  5
21
330
1F
100
AcDbEntity
  8
0
100
AcDbBlockEnd
  0
BLOCK
  5
1C
330
1B
100
AcDbEntity
 67
     1
  8
0
100
AcDbBlockBegin
  2
*PAPER_SPACE
 70
     0
 10
0.0
 20
0.0
 30
0.0
  3
*PAPER_SPACE
  1

  0
ENDBLK
  5
1D
330
1B
100
AcDbEntity
 67
     1
  8
0
100
AcDbBlockEnd
  0
BLOCK
  5
54
330
53
100
AcDbEntity
  8
0
100
AcDbBlockBegin
  2
EDTIP_ARROW_S
 70
     0
 10
0.0
 20
0.0
 30
0.0
  3
EDTIP_ARROW_S
  1

  0
LINE
  5
56
330
53
100
AcDbEntity
  8
0
  6
CONTINUOUS
 62
     0
100
AcDbLine
 10
0.0
 20
0.0
 30
0.0
 11
-1.0
 21
0.0
 31
0.0
  0
LINE
  5
57
330
53
100
AcDbEntity
  8
0
  6
CONTINUOUS
 62
     0
100
AcDbLine
 10
0.0
 20
0.0
 30
0.0
 11
-0.965926
 21
0.258819
 31
0.0
  0
LINE
  5
58
330
53
100
AcDbEntity
  8
0
  6
CONTINUOUS
 62
     0
100
AcDbLine
 10
0.0
 20
0.0
 30
0.0
 11
-0.965926
 21
-0.258819
 31
0.0
  0
ENDBLK
  5
55
330
53
100
AcDbEntity
  8
0
100
AcDbBlockEnd
  0
BLOCK
  5
5A
330
59
100
AcDbEntity
  8
0
100
AcDbBlockBegin
  2
EDTIP_ARROW_E
 70
     0
 10
0.0
 20
0.0
 30
0.0
  3
EDTIP_ARROW_E
  1

  0
LINE
  5
5C
330
59
100
AcDbEntity
  8
0
  6
CONTINUOUS
 62
     0
100
AcDbLine
 10
0.0
 20
0.0
 30
0.0
 11
-1.0
 21
0.0
 31
0.0
  0
LINE
  5
5D
330
59
100
AcDbEntity
  8
0
  6
CONTINUOUS
 62
     0
100
AcDbLine
 10
0.0
 20
0.0
 30
0.0
 11
-0.965926
 21
-0.258819
 31
0.0
  0
LINE
  5
5E
330
59
100
AcDbEntity
  8
0
  6
CONTINUOUS
 62
     0
100
AcDbLine
 10
0.0
 20
0.0
 30
0.0
 11
-0.965926
 21
0.258819
 31
0.0
  0
ENDBLK
  5
5B
330
59
100
AcDbEntity
  8
0
100
AcDbBlockEnd
  0
BLOCK
  5
60
330
5F
100
AcDbEntity
  8
0
100
AcDbBlockBegin
  2
EDTIP_BLACKDOT_S
 70
     0
 10
0.0
 20
0.0
 30
0.0
  3
EDTIP_BLACKDOT_S
  1

  0
LINE
  5
62
330
5F
100
AcDbEntity
  8
0
  6
CONTINUOUS
 62
     0
100
AcDbLine
 10
0.0
 20
0.0
 30
0.0
 11
-1.0
 21
0.0
 31
0.0
  0
CIRCLE
  5
63
330
5F
100
AcDbEntity
  8
0
  6
CONTINUOUS
 62
     0
100
AcDbCircle
 10
0.0
 20
0.0
 30
0.0
 40
0.5
  0
CIRCLE
  5
64
330
5F
100
AcDbEntity
  8
0
  6
CONTINUOUS
 62
     0
100
AcDbCircle
 10
0.0
 20
0.0
 30
0.0
 40
0.25
  0
ENDBLK
  5
61
330
5F
100
AcDbEntity
  8
0
100
AcDbBlockEnd
  0
BLOCK
  5
66
330
65
100
AcDbEntity
  8
0
100
AcDbBlockBegin
  2
EDTIP_BLACKDOT_E
 70
     0
 10
0.0
 20
0.0
 30
0.0
  3
EDTIP_BLACKDOT_E
  1

  0
LINE
  5
68
330
65
100
AcDbEntity
  8
0
  6
CONTINUOUS
 62
     0
100
AcDbLine
 10
0.0
 20
0.0
 30
0.0
 11
-1.0
 21
0.0
 31
0.0
  0
CIRCLE
  5
69
330
65
100
AcDbEntity
  8
0
  6
CONTINUOUS
 62
     0
100
AcDbCircle
 10
0.0
 20
0.0
 30
0.0
 40
0.5
  0
CIRCLE
  5
6A
330
65
100
AcDbEntity
  8
0
  6
CONTINUOUS
 62
     0
100
AcDbCircle
 10
0.0
 20
0.0
 30
0.0
 40
0.25
  0
ENDBLK
  5
67
330
65
100
AcDbEntity
  8
0
100
AcDbBlockEnd
  0
BLOCK
  5
6C
330
6B
100
AcDbEntity
  8
0
100
AcDbBlockBegin
  2
EDTIP_ARCHITECT_S
 70
     0
 10
0.0
 20
0.0
 30
0.0
  3
EDTIP_ARCHITECT_S
  1

  0
LINE
  5
6E
330
6B
100
AcDbEntity
  8
0
  6
CONTINUOUS
 62
     0
100
AcDbLine
 10
0.0
 20
0.0
 30
0.0
 11
-1.0
 21
0.0
 31
0.0
  0
LINE
  5
6F
330
6B
100
AcDbEntity
  8
0
  6
CONTINUOUS
 62
     0
100
AcDbLine
 10
0.0
 20
0.0
 30
0.0
 11
-0.707107
 21
-0.707107
 31
0.0
  0
LINE
  5
70
330
6B
100
AcDbEntity
  8
0
  6
CONTINUOUS
 62
     0
100
AcDbLine
 10
0.0
 20
0.0
 30
0.0
 11
0.707107
 21
0.707107
 31
0.0
  0
ENDBLK
  5
6D
330
6B
100
AcDbEntity
  8
0
100
AcDbBlockEnd
  0
BLOCK
  5
72
330
71
100
AcDbEntity
  8
0
100
AcDbBlockBegin
  2
EDTIP_ARCHITECT_E
 70
     0
 10
0.0
 20
0.0
 30
0.0
  3
EDTIP_ARCHITECT_E
  1

  0
LINE
  5
74
330
71
100
AcDbEntity
  8
0
  6
CONTINUOUS
 62
     0
100
AcDbLine
 10
0.0
 20
0.0
 30
0.0
 11
-1.0
 21
0.0
 31
0.0
  0
LINE
  5
75
330
71
100
AcDbEntity
  8
0
  6
CONTINUOUS
 62
     0
100
AcDbLine
 10
0.0
 20
0.0
 30
0.0
 11
-0.707107
 21
-0.707107
 31
0.0
  0
LINE
  5
76
330
71
100
AcDbEntity
  8
0
  6
CONTINUOUS
 62
     0
100
AcDbLine
 10
0.0
 20
0.0
 30
0.0
 11
0.707107
 21
0.707107
 31
0.0
  0
ENDBLK
  5
73
330
71
100
AcDbEntity
  8
0
100
AcDbBlockEnd
  0
BLOCK
  5
78
330
77
100
AcDbEntity
  8
0
100
AcDbBlockBegin
  2
EDTIP_CIVIL_S
 70
     0
 10
0.0
 20
0.0
 30
0.0
  3
EDTIP_CIVIL_S
  1

  0
LINE
  5
7A
330
77
100
AcDbEntity
  8
0
  6
CONTINUOUS
 62
     0
100
AcDbLine
 10
0.0
 20
0.0
 30
0.0
 11
-1.0
 21
0.0
 31
0.0
  0
LINE
  5
7B
330
77
100
AcDbEntity
  8
0
  6
CONTINUOUS
 62
     0
100
AcDbLine
 10
0.0
 20
-0.083333
 30
0.0
 11
-1.0
 21
-0.083333
 31
0.0
  0
LINE
  5
7C
330
77
100
AcDbEntity
  8
0
  6
CONTINUOUS
 62
     0
100
AcDbLine
 10
0.0
 20
-0.166667
 30
0.0
 11
-1.0
 21
-0.166667
 31
0.0
  0
ENDBLK
  5
79
330
77
100
AcDbEntity
  8
0
100
AcDbBlockEnd
  0
BLOCK
  5
7E
330
7D
100
AcDbEntity
  8
0
100
AcDbBlockBegin
  2
EDTIP_CIVIL_E
 70
     0
 10
0.0
 20
0.0
 30
0.0
  3
EDTIP_CIVIL_E
  1

  0
LINE
  5
80
330
7D
100
AcDbEntity
  8
0
  6
CONTINUOUS
 62
     0
100
AcDbLine
 10
0.0
 20
0.0
 30
0.0
 11
-1.0
 21
0.0
 31
0.0
  0
LINE
  5
81
330
7D
100
AcDbEntity
  8
0
  6
CONTINUOUS
 62
     0
100
AcDbLine
 10
0.0
 20
0.083333
 30
0.0
 11
-1.0
 21
0.083333
 31
0.0
  0
LINE
  5
82
330
7D
100
AcDbEntity
  8
0
  6
CONTINUOUS
 62
     0
100
AcDbLine
 10
0.0
 20
0.166667
 30
0.0
 11
-1.0
 21
0.166667
 31
0.0
  0
ENDBLK
  5
7F
330
7D
100
AcDbEntity
  8
0
100
AcDbBlockEnd
  0
BLOCK
  5
84
330
83
100
AcDbEntity
  8
0
100
AcDbBlockBegin
  2
EDTIP_WHITEDOT_S
 70
     0
 10
0.0
 20
0.0
 30
0.0
  3
EDTIP_WHITEDOT_S
  1

  0
LINE
  5
86
330
83
100
AcDbEntity
  8
0
  6
CONTINUOUS
 62
     0
100
AcDbLine
 10
0.0
 20
0.0
 30
0.0
 11
-1.0
 21
0.0
 31
0.0
  0
CIRCLE
  5
87
330
83
100
AcDbEntity
  8
0
  6
CONTINUOUS
 62
     0
100
AcDbCircle
 10
0.0
 20
0.0
 30
0.0
 40
0.5
  0
ENDBLK
  5
85
330
83
100
AcDbEntity
  8
0
100
AcDbBlockEnd
  0
BLOCK
  5
89
330
88
100
AcDbEntity
  8
0
100
AcDbBlockBegin
  2
EDTIP_WHITEDOT_E
 70
     0
 10
0.0
 20
0.0
 30
0.0
  3
EDTIP_WHITEDOT_E
  1

  0
LINE
  5
8B
330
88
100
AcDbEntity
  8
0
  6
CONTINUOUS
 62
     0
100
AcDbLine
 10
0.0
 20
0.0
 30
0.0
 11
-1.0
 21
0.0
 31
0.0
  0
CIRCLE
  5
8C
330
88
100
AcDbEntity
  8
0
  6
CONTINUOUS
 62
     0
100
AcDbCircle
 10
0.0
 20
0.0
 30
0.0
 40
0.5
  0
ENDBLK
  5
8A
330
88
100
AcDbEntity
  8
0
100
AcDbBlockEnd
  0
BLOCK
  5
8F
330
8E
100
AcDbEntity
  8
0
100
AcDbBlockBegin
  2
BLKF014
 70
     0
 10
0.0
 20
0.0
 30
0.0
  3
BLKF014
  1

  0
LINE
  5
92
330
8E
100
AcDbEntity
  8
CSLAYER2
  6
CONTINUOUS
 62
     3
100
AcDbLine
 10
1120.001111
 20
20.0
 30
0.0
 11
20.0
 21
20.0
 31
0.0
  0
LINE
  5
93
330
8E
100
AcDbEntity
  8
CSLAYER2
  6
CONTINUOUS
 62
     3
100
AcDbLine
 10
20.0
 20
20.0
 30
0.0
 11
20.0
 21
870.000874
 31
0.0
  0
LINE
  5
94
330
8E
100
AcDbEntity
  8
CSLAYER2
  6
CONTINUOUS
 62
     3
100
AcDbLine
 10
20.0
 20
870.000874
 30
0.0
 11
1120.001111
 21
870.000874
 31
0.0
  0
LINE
  5
95
330
8E
100
AcDbEntity
  8
CSLAYER2
  6
CONTINUOUS
 62
     3
100
AcDbLine
 10
1120.001111
 20
870.000874
 30
0.0
 11
1120.001111
 21
20.0
 31
0.0
  0
LINE
  5
96
330
8E
100
AcDbEntity
  8
CSLAYER2
  6
CONTINUOUS
 62
     3
100
AcDbLine
 10
680.00046
 20
120.000164
 30
0.0
 11
20.0
 21
120.000164
 31
0.0
  0
LINE
  5
97
330
8E
100
AcDbEntity
  8
CSLAYER2
  6
CONTINUOUS
 62
     3
100
AcDbLine
 10
20.0
 20
120.000164
 30
0.0
 11
20.0
 21
462.00053
 31
0.0
  0
LINE
  5
98
330
8E
100
AcDbEntity
  8
CSLAYER2
  6
CONTINUOUS
 62
     3
100
AcDbLine
 10
20.0
 20
462.00053
 30
0.0
 11
680.00046
 21
462.00053
 31
0.0
  0
LINE
  5
99
330
8E
100
AcDbEntity
  8
CSLAYER2
  6
CONTINUOUS
 62
     3
100
AcDbLine
 10
680.00046
 20
462.00053
 30
0.0
 11
680.00046
 21
120.000164
 31
0.0
  0
LINE
  5
9A
330
8E
100
AcDbEntity
  8
CSLAYER2
  6
CONTINUOUS
 62
     3
100
AcDbLine
 10
680.00046
 20
464.000409
 30
0.0
 11
20.0
 21
464.000409
 31
0.0
  0
LINE
  5
9B
330
8E
100
AcDbEntity
  8
CSLAYER2
  6
CONTINUOUS
 62
     3
100
AcDbLine
 10
20.0
 20
464.000409
 30
0.0
 11
20.0
 21
850.000876
 31
0.0
  0
LINE
  5
9C
330
8E
100
AcDbEntity
  8
CSLAYER2
  6
CONTINUOUS
 62
     3
100
AcDbLine
 10
20.0
 20
850.000876
 30
0.0
 11
680.00046
 21
850.000876
 31
0.0
  0
LINE
  5
9D
330
8E
100
AcDbEntity
  8
CSLAYER2
  6
CONTINUOUS
 62
     3
100
AcDbLine
 10
680.00046
 20
850.000876
 30
0.0
 11
680.00046
 21
464.000409
 31
0.0
  0
LINE
  5
9E
330
8E
100
AcDbEntity
  8
CSLAYER2
  6
CONTINUOUS
 62
     3
100
AcDbLine
 10
1120.001111
 20
850.000703
 30
0.0
 11
20.0
 21
850.000703
 31
0.0
  0
LINE
  5
9F
330
8E
100
AcDbEntity
  8
CSLAYER2
  6
CONTINUOUS
 62
     3
100
AcDbLine
 10
20.0
 20
850.000703
 30
0.0
 11
20.0
 21
870.000874
 31
0.0
  0
LINE
  5
A0
330
8E
100
AcDbEntity
  8
CSLAYER2
  6
CONTINUOUS
 62
     3
100
AcDbLine
 10
20.0
 20
870.000874
 30
0.0
 11
1120.001111
 21
870.000874
 31
0.0
  0
LINE
  5
A1
330
8E
100
AcDbEntity
  8
CSLAYER2
  6
CONTINUOUS
 62
     3
100
AcDbLine
 10
1120.001111
 20
870.000874
 30
0.0
 11
1120.001111
 21
850.000703
 31
0.0
  0
LINE
  5
A2
330
8E
100
AcDbEntity
  8
CSLAYER2
  6
CONTINUOUS
 62
     3
100
AcDbLine
 10
1120.001111
 20
120.000164
 30
0.0
 11
681.000572
 21
120.000164
 31
0.0
  0
LINE
  5
A3
330
8E
100
AcDbEntity
  8
CSLAYER2
  6
CONTINUOUS
 62
     3
100
AcDbLine
 10
681.000572
 20
120.000164
 30
0.0
 11
681.000572
 21
700.00063
 31
0.0
  0
LINE
  5
A4
330
8E
100
AcDbEntity
  8
CSLAYER2
  6
CONTINUOUS
 62
     3
100
AcDbLine
 10
681.000572
 20
700.00063
 30
0.0
 11
1120.001111
 21
700.00063
 31
0.0
  0
LINE
  5
A5
330
8E
100
AcDbEntity
  8
CSLAYER2
  6
CONTINUOUS
 62
     3
100
AcDbLine
 10
1120.001111
 20
700.00063
 30
0.0
 11
1120.001111
 21
120.000164
 31
0.0
  0
LINE
  5
A6
330
8E
100
AcDbEntity
  8
CSLAYER2
  6
CONTINUOUS
 62
     3
100
AcDbLine
 10
1120.001111
 20
700.00063
 30
0.0
 11
1100.00094
 21
700.00063
 31
0.0
  0
LINE
  5
A7
330
8E
100
AcDbEntity
  8
CSLAYER2
  6
CONTINUOUS
 62
     3
100
AcDbLine
 10
1100.00094
 20
700.00063
 30
0.0
 11
1100.00094
 21
850.000703
 31
0.0
  0
LINE
  5
A8
330
8E
100
AcDbEntity
  8
CSLAYER2
  6
CONTINUOUS
 62
     3
100
AcDbLine
 10
1100.00094
 20
850.000703
 30
0.0
 11
1120.001111
 21
850.000703
 31
0.0
  0
LINE
  5
A9
330
8E
100
AcDbEntity
  8
CSLAYER2
  6
CONTINUOUS
 62
     3
100
AcDbLine
 10
1120.001111
 20
850.000703
 30
0.0
 11
1120.001111
 21
700.00063
 31
0.0
  0
LINE
  5
AA
330
8E
100
AcDbEntity
  8
CSLAYER2
  6
CONTINUOUS
 62
     3
100
AcDbLine
 10
697.000639
 20
700.00063
 30
0.0
 11
680.00046
 21
700.00063
 31
0.0
  0
LINE
  5
AB
330
8E
100
AcDbEntity
  8
CSLAYER2
  6
CONTINUOUS
 62
     3
100
AcDbLine
 10
680.00046
 20
700.00063
 30
0.0
 11
680.00046
 21
850.000703
 31
0.0
  0
LINE
  5
AC
330
8E
100
AcDbEntity
  8
CSLAYER2
  6
CONTINUOUS
 62
     3
100
AcDbLine
 10
680.00046
 20
850.000703
 30
0.0
 11
697.000639
 21
850.000703
 31
0.0
  0
LINE
  5
AD
330
8E
100
AcDbEntity
  8
CSLAYER2
  6
CONTINUOUS
 62
     3
100
AcDbLine
 10
697.000639
 20
850.000703
 30
0.0
 11
697.000639
 21
700.00063
 31
0.0
  0
LINE
  5
AE
330
8E
100
AcDbEntity
  8
CSLAYER2
  6
CONTINUOUS
 62
     3
100
AcDbLine
 10
860.000961
 20
700.00063
 30
0.0
 11
847.000884
 21
700.00063
 31
0.0
  0
LINE
  5
AF
330
8E
100
AcDbEntity
  8
CSLAYER2
  6
CONTINUOUS
 62
     3
100
AcDbLine
 10
847.000884
 20
700.00063
 30
0.0
 11
847.000884
 21
850.000703
 31
0.0
  0
LINE
  5
B0
330
8E
100
AcDbEntity
  8
CSLAYER2
  6
CONTINUOUS
 62
     3
100
AcDbLine
 10
847.000884
 20
850.000703
 30
0.0
 11
860.000961
 21
850.000703
 31
0.0
  0
LINE
  5
B1
330
8E
100
AcDbEntity
  8
CSLAYER2
  6
CONTINUOUS
 62
     3
100
AcDbLine
 10
860.000961
 20
850.000703
 30
0.0
 11
860.000961
 21
700.00063
 31
0.0
  0
LINE
  5
B2
330
8E
100
AcDbEntity
  8
CSLAYER2
  6
CONTINUOUS
 62
     3
100
AcDbLine
 10
390.000226
 20
270.539222
 30
0.0
 11
389.997772
 21
270.151477
 31
0.0
  0
LINE
  5
B3
330
8E
100
AcDbEntity
  8
CSLAYER2
  6
CONTINUOUS
 62
     3
100
AcDbLine
 10
389.997772
 20
270.151477
 30
0.0
 11
389.990428
 21
269.76491
 31
0.0
  0
LINE
  5
B4
330
8E
100
AcDbEntity
  8
CSLAYER2
  6
CONTINUOUS
 62
     3
100
AcDbLine
 10
389.990428
 20
269.76491
 30
0.0
 11
389.978225
 21
269.379551
 31
0.0
  0
LINE
  5
B5
330
8E
100
AcDbEntity
  8
CSLAYER2
  6
CONTINUOUS
 62
     3
100
AcDbLine
 10
389.978225
 20
269.379551
 30
0.0
 11
389.961191
 21
268.99543
 31
0.0
  0
LINE
  5
B6
330
8E
100
AcDbEntity
  8
CSLAYER2
  6
CONTINUOUS
 62
     3
100
AcDbLine
 10
389.961191
 20
268.99543
 30
0.0
 11
389.939356
 21
268.612574
 31
0.0
  0
LINE
  5
B7
330
8E
100
AcDbEntity
  8
CSLAYER2
  6
CONTINUOUS
 62
     3
100
AcDbLine
 10
389.939356
 20
268.612574
 30
0.0
 11
389.91275
 21
268.231015
 31
0.0
  0
LINE
  5
B8
330
8E
100
AcDbEntity
  8
CSLAYER2
  6
CONTINUOUS
 62
     3
100
AcDbLine
 10
389.91275
 20
268.231015
 30
0.0
 11
389.881401
 21
267.850782
 31
0.0
  0
LINE
  5
B9
330
8E
100
AcDbEntity
  8
CSLAYER2
  6
CONTINUOUS
 62
     3
100
AcDbLine
 10
389.881401
 20
267.850782
 30
0.0
 11
389.84534
 21
267.471903
 31
0.0
  0
LINE
  5
BA
330
8E
100
AcDbEntity
  8
CSLAYER2
  6
CONTINUOUS
 62
     3
100
AcDbLine
 10
389.84534
 20
267.471903
 30
0.0
 11
389.804596
 21
267.094409
 31
0.0
  0
LINE
  5
BB
330
8E
100
AcDbEntity
  8
CSLAYER2
  6
CONTINUOUS
 62
     3
100
AcDbLine
 10
389.804596
 20
267.094409
 30
0.0
 11
389.759199
 21
266.718329
 31
0.0
  0
LINE
  5
BC
330
8E
100
AcDbEntity
  8
CSLAYER2
  6
CONTINUOUS
 62
     3
100
AcDbLine
 10
389.759199
 20
266.718329
 30
0.0
 11
389.709177
 21
266.343692
 31
0.0
  0
LINE
  5
BD
330
8E
100
AcDbEntity
  8
CSLAYER2
  6
CONTINUOUS
 62
     3
100
AcDbLine
 10
389.709177
 20
266.343692
 30
0.0
 11
389.65456
 21
265.970528
 31
0.0
  0
LINE
  5
BE
330
8E
100
AcDbEntity
  8
CSLAYER2
  6
CONTINUOUS
 62
     3
100
AcDbLine
 10
389.65456
 20
265.970528
 30
0.0
 11
389.595378
 21
265.598866
 31
0.0
  0
LINE
  5
BF
330
8E
100
AcDbEntity
  8
CSLAYER2
  6
CONTINUOUS
 62
     3
100
AcDbLine
 10
389.595378
 20
265.598866
 30
0.0
 11
389.53166
 21
265.228736
 31
0.0
  0
LINE
  5
C0
330
8E
100
AcDbEntity
  8
CSLAYER2
  6
CONTINUOUS
 62
     3
100
AcDbLine
 10
389.53166
 20
265.228736
 30
0.0
 11
389.463436
 21
264.860168
 31
0.0
  0
LINE
  5
C1
330
8E
100
AcDbEntity
  8
CSLAYER2
  6
CONTINUOUS
 62
     3
100
AcDbLine
 10
389.463436
 20
264.860168
 30
0.0
 11
389.390735
 21
264.493189
 31
0.0
  0
LINE
  5
C2
330
8E
100
AcDbEntity
  8
CSLAYER2
  6
CONTINUOUS
 62
     3
100
AcDbLine
 10
389.390735
 20
264.493189
 30
0.0
 11
389.313586
 21
264.127831
 31
0.0
  0
LINE
  5
C3
330
8E
100
AcDbEntity
  8
CSLAYER2
  6
CONTINUOUS
 62
     3
100
AcDbLine
 10
389.313586
 20
264.127831
 30
0.0
 11
389.23202
 21
263.764123
 31
0.0
  0
LINE
  5
C4
330
8E
100
AcDbEntity
  8
CSLAYER2
  6
CONTINUOUS
 62
     3
100
AcDbLine
 10
389.23202
 20
263.764123
 30
0.0
 11
389.146064
 21
263.402093
 31
0.0
  0
LINE
  5
C5
330
8E
100
AcDbEntity
  8
CSLAYER2
  6
CONTINUOUS
 62
     3
100
AcDbLine
 10
389.146064
 20
263.402093
 30
0.0
 11
389.05575
 21
263.041772
 31
0.0
  0
LINE
  5
C6
330
8E
100
AcDbEntity
  8
CSLAYER2
  6
CONTINUOUS
 62
     3
100
AcDbLine
 10
389.05575
 20
263.041772
 30
0.0
 11
388.961106
 21
262.683189
 31
0.0
  0
LINE
  5
C7
330
8E
100
AcDbEntity
  8
CSLAYER2
  6
CONTINUOUS
 62
     3
100
AcDbLine
 10
388.961106
 20
262.683189
 30
0.0
 11
388.862162
 21
262.326373
 31
0.0
  0
LINE
  5
C8
330
8E
100
AcDbEntity
  8
CSLAYER2
  6
CONTINUOUS
 62
     3
100
AcDbLine
 10
388.862162
 20
262.326373
 30
0.0
 11
388.758946
 21
261.971354
 31
0.0
  0
LINE
  5
C9
330
8E
100
AcDbEntity
  8
CSLAYER2
  6
CONTINUOUS
 62
     3
100
AcDbLine
 10
388.758946
 20
261.971354
 30
0.0
 11
388.65149
 21
261.618161
 31
0.0
  0
LINE
  5
CA
330
8E
100
AcDbEntity
  8
CSLAYER2
  6
CONTINUOUS
 62
     3
100
AcDbLine
 10
388.65149
 20
261.618161
 30
0.0
 11
388.539822
 21
261.266824
 31
0.0
  0
LINE
  5
CB
330
8E
100
AcDbEntity
  8
CSLAYER2
  6
CONTINUOUS
 62
     3
100
AcDbLine
 10
388.539822
 20
261.266824
 30
0.0
 11
388.423971
 21
260.917371
 31
0.0
  0
LINE
  5
CC
330
8E
100
AcDbEntity
  8
CSLAYER2
  6
CONTINUOUS
 62
     3
100
AcDbLine
 10
388.423971
 20
260.917371
 30
0.0
 11
388.303967
 21
260.569834
 31
0.0
  0
LINE
  5
CD
330
8E
100
AcDbEntity
  8
CSLAYER2
  6
CONTINUOUS
 62
     3
100
AcDbLine
 10
388.303967
 20
260.569834
 30
0.0
 11
388.17984
 21
260.224241
 31
0.0
  0
LINE
  5
CE
330
8E
100
AcDbEntity
  8
CSLAYER2
  6
CONTINUOUS
 62
     3
100
AcDbLine
 10
388.17984
 20
260.224241
 30
0.0
 11
388.051618
 21
259.880621
 31
0.0
  0
LINE
  5
CF
330
8E
100
AcDbEntity
  8
CSLAYER2
  6
CONTINUOUS
 62
     3
100
AcDbLine
 10
388.051618
 20
259.880621
 30
0.0
 11
387.919332
 21
259.539004
 31
0.0
  0
LINE
  5
D0
330
8E
100
AcDbEntity
  8
CSLAYER2
  6
CONTINUOUS
 62
     3
100
AcDbLine
 10
387.919332
 20
259.539004
 30
0.0
 11
387.783011
 21
259.199419
 31
0.0
  0
LINE
  5
D1
330
8E
100
AcDbEntity
  8
CSLAYER2
  6
CONTINUOUS
 62
     3
100
AcDbLine
 10
387.783011
 20
259.199419
 30
0.0
 11
387.642684
 21
258.861897
 31
0.0
  0
LINE
  5
D2
330
8E
100
AcDbEntity
  8
CSLAYER2
  6
CONTINUOUS
 62
     3
100
AcDbLine
 10
387.642684
 20
258.861897
 30
0.0
 11
387.498381
 21
258.526465
 31
0.0
  0
LINE
  5
D3
330
8E
100
AcDbEntity
  8
CSLAYER2
  6
CONTINUOUS
 62
     3
100
AcDbLine
 10
387.498381
 20
258.526465
 30
0.0
 11
387.350131
 21
258.193155
 31
0.0
  0
LINE
  5
D4
330
8E
100
AcDbEntity
  8
CSLAYER2
  6
CONTINUOUS
 62
     3
100
AcDbLine
 10
387.350131
 20
258.193155
 30
0.0
 11
387.197963
 21
257.861994
 31
0.0
  0
LINE
  5
D5
330
8E
100
AcDbEntity
  8
CSLAYER2
  6
CONTINUOUS
 62
     3
100
AcDbLine
 10
387.197963
 20
257.861994
 30
0.0
 11
387.041908
 21
257.533014
 31
0.0
  0
LINE
  5
D6
330
8E
100
AcDbEntity
  8
CSLAYER2
  6
CONTINUOUS
 62
     3
100
AcDbLine
 10
387.041908
 20
257.533014
 30
0.0
 11
386.881994
 21
257.206242
 31
0.0
  0
LINE
  5
D7
330
8E
100
AcDbEntity
  8
CSLAYER2
  6
CONTINUOUS
 62
     3
100
AcDbLine
 10
386.881994
 20
257.206242
 30
0.0
 11
386.718252
 21
256.881709
 31
0.0
  0
LINE
  5
D8
330
8E
100
AcDbEntity
  8
CSLAYER2
  6
CONTINUOUS
 62
     3
100
AcDbLine
 10
386.718252
 20
256.881709
 30
0.0
 11
386.550709
 21
256.559444
 31
0.0
  0
LINE
  5
D9
330
8E
100
AcDbEntity
  8
CSLAYER2
  6
CONTINUOUS
 62
     3
100
AcDbLine
 10
386.550709
 20
256.559444
 30
0.0
 11
386.379397
 21
256.239476
 31
0.0
  0
LINE
  5
DA
330
8E
100
AcDbEntity
  8
CSLAYER2
  6
CONTINUOUS
 62
     3
100
AcDbLine
 10
386.379397
 20
256.239476
 30
0.0
 11
386.204344
 21
255.921836
 31
0.0
  0
LINE
  5
DB
330
8E
100
AcDbEntity
  8
CSLAYER2
  6
CONTINUOUS
 62
     3
100
AcDbLine
 10
386.204344
 20
255.921836
 30
0.0
 11
386.025579
 21
255.606552
 31
0.0
  0
LINE
  5
DC
330
8E
100
AcDbEntity
  8
CSLAYER2
  6
CONTINUOUS
 62
     3
100
AcDbLine
 10
386.025579
 20
255.606552
 30
0.0
 11
385.843133
 21
255.293653
 31
0.0
  0
LINE
  5
DD
330
8E
100
AcDbEntity
  8
CSLAYER2
  6
CONTINUOUS
 62
     3
100
AcDbLine
 10
385.843133
 20
255.293653
 30
0.0
 11
385.657035
 21
254.98317
 31
0.0
  0
LINE
  5
DE
330
8E
100
AcDbEntity
  8
CSLAYER2
  6
CONTINUOUS
 62
     3
100
AcDbLine
 10
385.657035
 20
254.98317
 30
0.0
 11
385.467314
 21
254.675132
 31
0.0
  0
LINE
  5
DF
330
8E
100
AcDbEntity
  8
CSLAYER2
  6
CONTINUOUS
 62
     3
100
AcDbLine
 10
385.467314
 20
254.675132
 30
0.0
 11
385.273999
 21
254.369568
 31
0.0
  0
LINE
  5
E0
330
8E
100
AcDbEntity
  8
CSLAYER2
  6
CONTINUOUS
 62
     3
100
AcDbLine
 10
385.273999
 20
254.369568
 30
0.0
 11
385.077121
 21
254.066507
 31
0.0
  0
LINE
  5
E1
330
8E
100
AcDbEntity
  8
CSLAYER2
  6
CONTINUOUS
 62
     3
100
AcDbLine
 10
385.077121
 20
254.066507
 30
0.0
 11
384.876708
 21
253.76598
 31
0.0
  0
LINE
  5
E2
330
8E
100
AcDbEntity
  8
CSLAYER2
  6
CONTINUOUS
 62
     3
100
AcDbLine
 10
384.876708
 20
253.76598
 30
0.0
 11
384.672789
 21
253.468015
 31
0.0
  0
LINE
  5
E3
330
8E
100
AcDbEntity
  8
CSLAYER2
  6
CONTINUOUS
 62
     3
100
AcDbLine
 10
384.672789
 20
253.468015
 30
0.0
 11
384.465396
 21
253.172642
 31
0.0
  0
LINE
  5
E4
330
8E
100
AcDbEntity
  8
CSLAYER2
  6
CONTINUOUS
 62
     3
100
AcDbLine
 10
384.465396
 20
253.172642
 30
0.0
 11
384.254556
 21
252.879891
 31
0.0
  0
LINE
  5
E5
330
8E
100
AcDbEntity
  8
CSLAYER2
  6
CONTINUOUS
 62
     3
100
AcDbLine
 10
384.254556
 20
252.879891
 30
0.0
 11
384.040299
 21
252.58979
 31
0.0
  0
LINE
  5
E6
330
8E
100
AcDbEntity
  8
CSLAYER2
  6
CONTINUOUS
 62
     3
100
AcDbLine
 10
384.040299
 20
252.58979
 30
0.0
 11
383.822656
 21
252.30237
 31
0.0
  0
LINE
  5
E7
330
8E
100
AcDbEntity
  8
CSLAYER2
  6
CONTINUOUS
 62
     3
100
AcDbLine
 10
383.822656
 20
252.30237
 30
0.0
 11
383.601654
 21
252.01766
 31
0.0
  0
LINE
  5
E8
330
8E
100
AcDbEntity
  8
CSLAYER2
  6
CONTINUOUS
 62
     3
100
AcDbLine
 10
383.601654
 20
252.01766
 30
0.0
 11
383.377324
 21
251.735689
 31
0.0
  0
LINE
  5
E9
330
8E
100
AcDbEntity
  8
CSLAYER2
  6
CONTINUOUS
 62
     3
100
AcDbLine
 10
383.377324
 20
251.735689
 30
0.0
 11
383.149696
 21
251.456487
 31
0.0
  0
LINE
  5
EA
330
8E
100
AcDbEntity
  8
CSLAYER2
  6
CONTINUOUS
 62
     3
100
AcDbLine
 10
383.149696
 20
251.456487
 30
0.0
 11
382.918797
 21
251.180082
 31
0.0
  0
LINE
  5
EB
330
8E
100
AcDbEntity
  8
CSLAYER2
  6
CONTINUOUS
 62
     3
100
AcDbLine
 10
382.918797
 20
251.180082
 30
0.0
 11
382.684659
 21
250.906506
 31
0.0
  0
LINE
  5
EC
330
8E
100
AcDbEntity
  8
CSLAYER2
  6
CONTINUOUS
 62
     3
100
AcDbLine
 10
382.684659
 20
250.906506
 30
0.0
 11
382.44731
 21
250.635786
 31
0.0
  0
LINE
  5
ED
330
8E
100
AcDbEntity
  8
CSLAYER2
  6
CONTINUOUS
 62
     3
100
AcDbLine
 10
382.44731
 20
250.635786
 30
0.0
 11
382.206781
 21
250.367953
 31
0.0
  0
LINE
  5
EE
330
8E
100
AcDbEntity
  8
CSLAYER2
  6
CONTINUOUS
 62
     3
100
AcDbLine
 10
382.206781
 20
250.367953
 30
0.0
 11
381.963099
 21
250.103036
 31
0.0
  0
LINE
  5
EF
330
8E
100
AcDbEntity
  8
CSLAYER2
  6
CONTINUOUS
 62
     3
100
AcDbLine
 10
381.963099
 20
250.103036
 30
0.0
 11
381.716296
 21
249.841065
 31
0.0
  0
LINE
  5
F0
330
8E
100
AcDbEntity
  8
CSLAYER2
  6
CONTINUOUS
 62
     3
100
AcDbLine
 10
381.716296
 20
249.841065
 30
0.0
 11
381.466399
 21
249.582068
 31
0.0
  0
LINE
  5
F1
330
8E
100
AcDbEntity
  8
CSLAYER2
  6
CONTINUOUS
 62
     3
100
AcDbLine
 10
381.466399
 20
249.582068
 30
0.0
 11
381.21344
 21
249.326076
 31
0.0
  0
LINE
  5
F2
330
8E
100
AcDbEntity
  8
CSLAYER2
  6
CONTINUOUS
 62
     3
100
AcDbLine
 10
381.21344
 20
249.326076
 30
0.0
 11
380.957447
 21
249.073117
 31
0.0
  0
LINE
  5
F3
330
8E
100
AcDbEntity
  8
CSLAYER2
  6
CONTINUOUS
 62
     3
100
AcDbLine
 10
380.957447
 20
249.073117
 30
0.0
 11
380.698449
 21
248.823222
 31
0.0
  0
LINE
  5
F4
330
8E
100
AcDbEntity
  8
CSLAYER2
  6
CONTINUOUS
 62
     3
100
AcDbLine
 10
380.698449
 20
248.823222
 30
0.0
 11
380.436476
 21
248.576419
 31
0.0
  0
LINE
  5
F5
330
8E
100
AcDbEntity
  8
CSLAYER2
  6
CONTINUOUS
 62
     3
100
AcDbLine
 10
380.436476
 20
248.576419
 30
0.0
 11
380.171558
 21
248.332739
 31
0.0
  0
LINE
  5
F6
330
8E
100
AcDbEntity
  8
CSLAYER2
  6
CONTINUOUS
 62
     3
100
AcDbLine
 10
380.171558
 20
248.332739
 30
0.0
 11
379.903724
 21
248.09221
 31
0.0
  0
LINE
  5
F7
330
8E
100
AcDbEntity
  8
CSLAYER2
  6
CONTINUOUS
 62
     3
100
AcDbLine
 10
379.903724
 20
248.09221
 30
0.0
 11
379.633003
 21
247.854862
 31
0.0
  0
LINE
  5
F8
330
8E
100
AcDbEntity
  8
CSLAYER2
  6
CONTINUOUS
 62
     3
100
AcDbLine
 10
379.633003
 20
247.854862
 30
0.0
 11
379.359426
 21
247.620725
 31
0.0
  0
LINE
  5
F9
330
8E
100
AcDbEntity
  8
CSLAYER2
  6
CONTINUOUS
 62
     3
100
AcDbLine
 10
379.359426
 20
247.620725
 30
0.0
 11
379.08302
 21
247.389827
 31
0.0
  0
LINE
  5
FA
330
8E
100
AcDbEntity
  8
CSLAYER2
  6
CONTINUOUS
 62
     3
100
AcDbLine
 10
379.08302
 20
247.389827
 30
0.0
 11
378.803816
 21
247.162199
 31
0.0
  0
LINE
  5
FB
330
8E
100
AcDbEntity
  8
CSLAYER2
  6
CONTINUOUS
 62
     3
100
AcDbLine
 10
378.803816
 20
247.162199
 30
0.0
 11
378.521844
 21
246.93787
 31
0.0
  0
LINE
  5
FC
330
8E
100
AcDbEntity
  8
CSLAYER2
  6
CONTINUOUS
 62
     3
100
AcDbLine
 10
378.521844
 20
246.93787
 30
0.0
 11
378.237132
 21
246.716869
 31
0.0
  0
LINE
  5
FD
330
8E
100
AcDbEntity
  8
CSLAYER2
  6
CONTINUOUS
 62
     3
100
AcDbLine
 10
378.237132
 20
246.716869
 30
0.0
 11
377.949711
 21
246.499226
 31
0.0
  0
LINE
  5
FE
330
8E
100
AcDbEntity
  8
CSLAYER2
  6
CONTINUOUS
 62
     3
100
AcDbLine
 10
377.949711
 20
246.499226
 30
0.0
 11
377.659609
 21
246.284971
 31
0.0
  0
LINE
  5
FF
330
8E
100
AcDbEntity
  8
CSLAYER2
  6
CONTINUOUS
 62
     3
100
AcDbLine
 10
377.659609
 20
246.284971
 30
0.0
 11
377.366856
 21
246.074131
 31
0.0
  0
LINE
  5
100
330
8E
100
AcDbEntity
  8
CSLAYER2
  6
CONTINUOUS
 62
     3
100
AcDbLine
 10
377.366856
 20
246.074131
 30
0.0
 11
377.071482
 21
245.866738
 31
0.0
  0
LINE
  5
101
330
8E
100
AcDbEntity
  8
CSLAYER2
  6
CONTINUOUS
 62
     3
100
AcDbLine
 10
377.071482
 20
245.866738
 30
0.0
 11
376.773515
 21
245.662821
 31
0.0
  0
LINE
  5
102
330
8E
100
AcDbEntity
  8
CSLAYER2
  6
CONTINUOUS
 62
     3
100
AcDbLine
 10
376.773515
 20
245.662821
 30
0.0
 11
376.472986
 21
245.462408
 31
0.0
  0
LINE
  5
103
330
8E
100
AcDbEntity
  8
CSLAYER2
  6
CONTINUOUS
 62
     3
100
AcDbLine
 10
376.472986
 20
245.462408
 30
0.0
 11
376.169924
 21
245.26553
 31
0.0
  0
LINE
  5
104
330
8E
100
AcDbEntity
  8
CSLAYER2
  6
CONTINUOUS
 62
     3
100
AcDbLine
 10
376.169924
 20
245.26553
 30
0.0
 11
375.864358
 21
245.072216
 31
0.0
  0
LINE
  5
105
330
8E
100
AcDbEntity
  8
CSLAYER2
  6
CONTINUOUS
 62
     3
100
AcDbLine
 10
375.864358
 20
245.072216
 30
0.0
 11
375.556318
 21
244.882495
 31
0.0
  0
LINE
  5
106
330
8E
100
AcDbEntity
  8
CSLAYER2
  6
CONTINUOUS
 62
     3
100
AcDbLine
 10
375.556318
 20
244.882495
 30
0.0
 11
375.245834
 21
244.696397
 31
0.0
  0
LINE
  5
107
330
8E
100
AcDbEntity
  8
CSLAYER2
  6
CONTINUOUS
 62
     3
100
AcDbLine
 10
375.245834
 20
244.696397
 30
0.0
 11
374.932933
 21
244.513952
 31
0.0
  0
LINE
  5
108
330
8E
100
AcDbEntity
  8
CSLAYER2
  6
CONTINUOUS
 62
     3
100
AcDbLine
 10
374.932933
 20
244.513952
 30
0.0
 11
374.617647
 21
244.335188
 31
0.0
  0
LINE
  5
109
330
8E
100
AcDbEntity
  8
CSLAYER2
  6
CONTINUOUS
 62
     3
100
AcDbLine
 10
374.617647
 20
244.335188
 30
0.0
 11
374.300005
 21
244.160135
 31
0.0
  0
LINE
  5
10A
330
8E
100
AcDbEntity
  8
CSLAYER2
  6
CONTINUOUS
 62
     3
100
AcDbLine
 10
374.300005
 20
244.160135
 30
0.0
 11
373.980036
 21
243.988823
 31
0.0
  0
LINE
  5
10B
330
8E
100
AcDbEntity
  8
CSLAYER2
  6
CONTINUOUS
 62
     3
100
AcDbLine
 10
373.980036
 20
243.988823
 30
0.0
 11
373.657769
 21
243.821281
 31
0.0
  0
LINE
  5
10C
330
8E
100
AcDbEntity
  8
CSLAYER2
  6
CONTINUOUS
 62
     3
100
AcDbLine
 10
373.657769
 20
243.821281
 30
0.0
 11
373.333234
 21
243.657539
 31
0.0
  0
LINE
  5
10D
330
8E
100
AcDbEntity
  8
CSLAYER2
  6
CONTINUOUS
 62
     3
100
AcDbLine
 10
373.333234
 20
243.657539
 30
0.0
 11
373.00646
 21
243.497625
 31
0.0
  0
LINE
  5
10E
330
8E
100
AcDbEntity
  8
CSLAYER2
  6
CONTINUOUS
 62
     3
100
AcDbLine
 10
373.00646
 20
243.497625
 30
0.0
 11
372.677477
 21
243.34157
 31
0.0
  0
LINE
  5
10F
330
8E
100
AcDbEntity
  8
CSLAYER2
  6
CONTINUOUS
 62
     3
100
AcDbLine
 10
372.677477
 20
243.34157
 30
0.0
 11
372.346315
 21
243.189403
 31
0.0
  0
LINE
  5
110
330
8E
100
AcDbEntity
  8
CSLAYER2
  6
CONTINUOUS
 62
     3
100
AcDbLine
 10
372.346315
 20
243.189403
 30
0.0
 11
372.013002
 21
243.041154
 31
0.0
  0
LINE
  5
111
330
8E
100
AcDbEntity
  8
CSLAYER2
  6
CONTINUOUS
 62
     3
100
AcDbLine
 10
372.013002
 20
243.041154
 30
0.0
 11
371.677568
 21
242.896851
 31
0.0
  0
LINE
  5
112
330
8E
100
AcDbEntity
  8
CSLAYER2
  6
CONTINUOUS
 62
     3
100
AcDbLine
 10
371.677568
 20
242.896851
 30
0.0
 11
371.340043
 21
242.756524
 31
0.0
  0
LINE
  5
113
330
8E
100
AcDbEntity
  8
CSLAYER2
  6
CONTINUOUS
 62
     3
100
AcDbLine
 10
371.340043
 20
242.756524
 30
0.0
 11
371.000456
 21
242.620203
 31
0.0
  0
LINE
  5
114
330
8E
100
AcDbEntity
  8
CSLAYER2
  6
CONTINUOUS
 62
     3
100
AcDbLine
 10
371.000456
 20
242.620203
 30
0.0
 11
370.658837
 21
242.487917
 31
0.0
  0
LINE
  5
115
330
8E
100
AcDbEntity
  8
CSLAYER2
  6
CONTINUOUS
 62
     3
100
AcDbLine
 10
370.658837
 20
242.487917
 30
0.0
 11
370.315215
 21
242.359696
 31
0.0
  0
LINE
  5
116
330
8E
100
AcDbEntity
  8
CSLAYER2
  6
CONTINUOUS
 62
     3
100
AcDbLine
 10
370.315215
 20
242.359696
 30
0.0
 11
369.969619
 21
242.235569
 31
0.0
  0
LINE
  5
117
330
8E
100
AcDbEntity
  8
CSLAYER2
  6
CONTINUOUS
 62
     3
100
AcDbLine
 10
369.969619
 20
242.235569
 30
0.0
 11
369.622079
 21
242.115565
 31
0.0
  0
LINE
  5
118
330
8E
100
AcDbEntity
  8
CSLAYER2
  6
CONTINUOUS
 62
     3
100
AcDbLine
 10
369.622079
 20
242.115565
 30
0.0
 11
369.272624
 21
241.999715
 31
0.0
  0
LINE
  5
119
330
8E
100
AcDbEntity
  8
CSLAYER2
  6
CONTINUOUS
 62
     3
100
AcDbLine
 10
369.272624
 20
241.999715
 30
0.0
 11
368.921284
 21
241.888046
 31
0.0
  0
LINE
  5
11A
330
8E
100
AcDbEntity
  8
CSLAYER2
  6
CONTINUOUS
 62
     3
100
AcDbLine
 10
368.921284
 20
241.888046
 30
0.0
 11
368.568089
 21
241.78059
 31
0.0
  0
LINE
  5
11B
330
8E
100
AcDbEntity
  8
CSLAYER2
  6
CONTINUOUS
 62
     3
100
AcDbLine
 10
368.568089
 20
241.78059
 30
0.0
 11
368.213067
 21
241.677375
 31
0.0
  0
LINE
  5
11C
330
8E
100
AcDbEntity
  8
CSLAYER2
  6
CONTINUOUS
 62
     3
100
AcDbLine
 10
368.213067
 20
241.677375
 30
0.0
 11
367.856248
 21
241.578431
 31
0.0
  0
LINE
  5
11D
330
8E
100
AcDbEntity
  8
CSLAYER2
  6
CONTINUOUS
 62
     3
100
AcDbLine
 10
367.856248
 20
241.578431
 30
0.0
 11
367.497662
 21
241.483787
 31
0.0
  0
LINE
  5
11E
330
8E
100
AcDbEntity
  8
CSLAYER2
  6
CONTINUOUS
 62
     3
100
AcDbLine
 10
367.497662
 20
241.483787
 30
0.0
 11
367.137338
 21
241.393472
 31
0.0
  0
LINE
  5
11F
330
8E
100
AcDbEntity
  8
CSLAYER2
  6
CONTINUOUS
 62
     3
100
AcDbLine
 10
367.137338
 20
241.393472
 30
0.0
 11
366.775305
 21
241.307517
 31
0.0
  0
LINE
  5
120
330
8E
100
AcDbEntity
  8
CSLAYER2
  6
CONTINUOUS
 62
     3
100
AcDbLine
 10
366.775305
 20
241.307517
 30
0.0
 11
366.411594
 21
241.225951
 31
0.0
  0
LINE
  5
121
330
8E
100
AcDbEntity
  8
CSLAYER2
  6
CONTINUOUS
 62
     3
100
AcDbLine
 10
366.411594
 20
241.225951
 30
0.0
 11
366.046233
 21
241.148802
 31
0.0
  0
LINE
  5
122
330
8E
100
AcDbEntity
  8
CSLAYER2
  6
CONTINUOUS
 62
     3
100
AcDbLine
 10
366.046233
 20
241.148802
 30
0.0
 11
365.679251
 21
241.076101
 31
0.0
  0
LINE
  5
123
330
8E
100
AcDbEntity
  8
CSLAYER2
  6
CONTINUOUS
 62
     3
100
AcDbLine
 10
365.679251
 20
241.076101
 30
0.0
 11
365.310679
 21
241.007877
 31
0.0
  0
LINE
  5
124
330
8E
100
AcDbEntity
  8
CSLAYER2
  6
CONTINUOUS
 62
     3
100
AcDbLine
 10
365.310679
 20
241.007877
 30
0.0
 11
364.940546
 21
240.944159
 31
0.0
  0
LINE
  5
125
330
8E
100
AcDbEntity
  8
CSLAYER2
  6
CONTINUOUS
 62
     3
100
AcDbLine
 10
364.940546
 20
240.944159
 30
0.0
 11
364.568881
 21
240.884977
 31
0.0
  0
LINE
  5
126
330
8E
100
AcDbEntity
  8
CSLAYER2
  6
CONTINUOUS
 62
     3
100
AcDbLine
 10
364.568881
 20
240.884977
 30
0.0
 11
364.195714
 21
240.83036
 31
0.0
  0
LINE
  5
127
330
8E
100
AcDbEntity
  8
CSLAYER2
  6
CONTINUOUS
 62
     3
100
AcDbLine
 10
364.195714
 20
240.83036
 30
0.0
 11
363.821074
 21
240.780339
 31
0.0
  0
LINE
  5
128
330
8E
100
AcDbEntity
  8
CSLAYER2
  6
CONTINUOUS
 62
     3
100
AcDbLine
 10
363.821074
 20
240.780339
 30
0.0
 11
363.44499
 21
240.734941
 31
0.0
  0
LINE
  5
129
330
8E
100
AcDbEntity
  8
CSLAYER2
  6
CONTINUOUS
 62
     3
100
AcDbLine
 10
363.44499
 20
240.734941
 30
0.0
 11
363.067492
 21
240.694197
 31
0.0
  0
LINE
  5
12A
330
8E
100
AcDbEntity
  8
CSLAYER2
  6
CONTINUOUS
 62
     3
100
AcDbLine
 10
363.067492
 20
240.694197
 30
0.0
 11
362.68861
 21
240.658136
 31
0.0
  0
LINE
  5
12B
330
8E
100
AcDbEntity
  8
CSLAYER2
  6
CONTINUOUS
 62
     3
100
AcDbLine
 10
362.68861
 20
240.658136
 30
0.0
 11
362.308373
 21
240.626788
 31
0.0
  0
LINE
  5
12C
330
8E
100
AcDbEntity
  8
CSLAYER2
  6
CONTINUOUS
 62
     3
100
AcDbLine
 10
362.308373
 20
240.626788
 30
0.0
 11
361.92681
 21
240.600182
 31
0.0
  0
LINE
  5
12D
330
8E
100
AcDbEntity
  8
CSLAYER2
  6
CONTINUOUS
 62
     3
100
AcDbLine
 10
361.92681
 20
240.600182
 30
0.0
 11
361.543951
 21
240.578347
 31
0.0
  0
LINE
  5
12E
330
8E
100
AcDbEntity
  8
CSLAYER2
  6
CONTINUOUS
 62
     3
100
AcDbLine
 10
361.543951
 20
240.578347
 30
0.0
 11
361.159826
 21
240.561313
 31
0.0
  0
LINE
  5
12F
330
8E
100
AcDbEntity
  8
CSLAYER2
  6
CONTINUOUS
 62
     3
100
AcDbLine
 10
361.159826
 20
240.561313
 30
0.0
 11
360.774463
 21
240.549109
 31
0.0
  0
LINE
  5
130
330
8E
100
AcDbEntity
  8
CSLAYER2
  6
CONTINUOUS
 62
     3
100
AcDbLine
 10
360.774463
 20
240.549109
 30
0.0
 11
360.387892
 21
240.541765
 31
0.0
  0
LINE
  5
131
330
8E
100
AcDbEntity
  8
CSLAYER2
  6
CONTINUOUS
 62
     3
100
AcDbLine
 10
360.387892
 20
240.541765
 30
0.0
 11
360.000143
 21
240.539311
 31
0.0
  0
LINE
  5
132
330
8E
100
AcDbEntity
  8
CSLAYER2
  6
CONTINUOUS
 62
     3
100
AcDbLine
 10
360.000143
 20
240.539311
 30
0.0
 11
359.612398
 21
240.541765
 31
0.0
  0
LINE
  5
133
330
8E
100
AcDbEntity
  8
CSLAYER2
  6
CONTINUOUS
 62
     3
100
AcDbLine
 10
359.612398
 20
240.541765
 30
0.0
 11
359.225831
 21
240.549109
 31
0.0
  0
LINE
  5
134
330
8E
100
AcDbEntity
  8
CSLAYER2
  6
CONTINUOUS
 62
     3
100
AcDbLine
 10
359.225831
 20
240.549109
 30
0.0
 11
358.840472
 21
240.561313
 31
0.0
  0
LINE
  5
135
330
8E
100
AcDbEntity
  8
CSLAYER2
  6
CONTINUOUS
 62
     3
100
AcDbLine
 10
358.840472
 20
240.561313
 30
0.0
 11
358.45635
 21
240.578347
 31
0.0
  0
LINE
  5
136
330
8E
100
AcDbEntity
  8
CSLAYER2
  6
CONTINUOUS
 62
     3
100
AcDbLine
 10
358.45635
 20
240.578347
 30
0.0
 11
358.073495
 21
240.600182
 31
0.0
  0
LINE
  5
137
330
8E
100
AcDbEntity
  8
CSLAYER2
  6
CONTINUOUS
 62
     3
100
AcDbLine
 10
358.073495
 20
240.600182
 30
0.0
 11
357.691936
 21
240.626788
 31
0.0
  0
LINE
  5
138
330
8E
100
AcDbEntity
  8
CSLAYER2
  6
CONTINUOUS
 62
     3
100
AcDbLine
 10
357.691936
 20
240.626788
 30
0.0
 11
357.311702
 21
240.658136
 31
0.0
  0
LINE
  5
139
330
8E
100
AcDbEntity
  8
CSLAYER2
  6
CONTINUOUS
 62
     3
100
AcDbLine
 10
357.311702
 20
240.658136
 30
0.0
 11
356.932824
 21
240.694197
 31
0.0
  0
LINE
  5
13A
330
8E
100
AcDbEntity
  8
CSLAYER2
  6
CONTINUOUS
 62
     3
100
AcDbLine
 10
356.932824
 20
240.694197
 30
0.0
 11
356.55533
 21
240.734941
 31
0.0
  0
LINE
  5
13B
330
8E
100
AcDbEntity
  8
CSLAYER2
  6
CONTINUOUS
 62
     3
100
AcDbLine
 10
356.55533
 20
240.734941
 30
0.0
 11
356.179249
 21
240.780339
 31
0.0
  0
LINE
  5
13C
330
8E
100
AcDbEntity
  8
CSLAYER2
  6
CONTINUOUS
 62
     3
100
AcDbLine
 10
356.179249
 20
240.780339
 30
0.0
 11
355.804613
 21
240.83036
 31
0.0
  0
LINE
  5
13D
330
8E
100
AcDbEntity
  8
CSLAYER2
  6
CONTINUOUS
 62
     3
100
AcDbLine
 10
355.804613
 20
240.83036
 30
0.0
 11
355.431449
 21
240.884977
 31
0.0
  0
LINE
  5
13E
330
8E
100
AcDbEntity
  8
CSLAYER2
  6
CONTINUOUS
 62
     3
100
AcDbLine
 10
355.431449
 20
240.884977
 30
0.0
 11
355.059787
 21
240.944159
 31
0.0
  0
LINE
  5
13F
330
8E
100
AcDbEntity
  8
CSLAYER2
  6
CONTINUOUS
 62
     3
100
AcDbLine
 10
355.059787
 20
240.944159
 30
0.0
 11
354.689657
 21
241.007877
 31
0.0
  0
LINE
  5
140
330
8E
100
AcDbEntity
  8
CSLAYER2
  6
CONTINUOUS
 62
     3
100
AcDbLine
 10
354.689657
 20
241.007877
 30
0.0
 11
354.321088
 21
241.076101
 31
0.0
  0
LINE
  5
141
330
8E
100
AcDbEntity
  8
CSLAYER2
  6
CONTINUOUS
 62
     3
100
AcDbLine
 10
354.321088
 20
241.076101
 30
0.0
 11
353.95411
 21
241.148802
 31
0.0
  0
LINE
  5
142
330
8E
100
AcDbEntity
  8
CSLAYER2
  6
CONTINUOUS
 62
     3
100
AcDbLine
 10
353.95411
 20
241.148802
 30
0.0
 11
353.588752
 21
241.225951
 31
0.0
  0
LINE
  5
143
330
8E
100
AcDbEntity
  8
CSLAYER2
  6
CONTINUOUS
 62
     3
100
AcDbLine
 10
353.588752
 20
241.225951
 30
0.0
 11
353.225043
 21
241.307517
 31
0.0
  0
LINE
  5
144
330
8E
100
AcDbEntity
  8
CSLAYER2
  6
CONTINUOUS
 62
     3
100
AcDbLine
 10
353.225043
 20
241.307517
 30
0.0
 11
352.863014
 21
241.393472
 31
0.0
  0
LINE
  5
145
330
8E
100
AcDbEntity
  8
CSLAYER2
  6
CONTINUOUS
 62
     3
100
AcDbLine
 10
352.863014
 20
241.393472
 30
0.0
 11
352.502693
 21
241.483787
 31
0.0
  0
LINE
  5
146
330
8E
100
AcDbEntity
  8
CSLAYER2
  6
CONTINUOUS
 62
     3
100
AcDbLine
 10
352.502693
 20
241.483787
 30
0.0
 11
352.144109
 21
241.578431
 31
0.0
  0
LINE
  5
147
330
8E
100
AcDbEntity
  8
CSLAYER2
  6
CONTINUOUS
 62
     3
100
AcDbLine
 10
352.144109
 20
241.578431
 30
0.0
 11
351.787293
 21
241.677375
 31
0.0
  0
LINE
  5
148
330
8E
100
AcDbEntity
  8
CSLAYER2
  6
CONTINUOUS
 62
     3
100
AcDbLine
 10
351.787293
 20
241.677375
 30
0.0
 11
351.432274
 21
241.78059
 31
0.0
  0
LINE
  5
149
330
8E
100
AcDbEntity
  8
CSLAYER2
  6
CONTINUOUS
 62
     3
100
AcDbLine
 10
351.432274
 20
241.78059
 30
0.0
 11
351.079081
 21
241.888046
 31
0.0
  0
LINE
  5
14A
330
8E
100
AcDbEntity
  8
CSLAYER2
  6
CONTINUOUS
 62
     3
100
AcDbLine
 10
351.079081
 20
241.888046
 30
0.0
 11
350.727744
 21
241.999715
 31
0.0
  0
LINE
  5
14B
330
8E
100
AcDbEntity
  8
CSLAYER2
  6
CONTINUOUS
 62
     3
100
AcDbLine
 10
350.727744
 20
241.999715
 30
0.0
 11
350.378292
 21
242.115565
 31
0.0
  0
LINE
  5
14C
330
8E
100
AcDbEntity
  8
CSLAYER2
  6
CONTINUOUS
 62
     3
100
AcDbLine
 10
350.378292
 20
242.115565
 30
0.0
 11
350.030755
 21
242.235569
 31
0.0
  0
LINE
  5
14D
330
8E
100
AcDbEntity
  8
CSLAYER2
  6
CONTINUOUS
 62
     3
100
AcDbLine
 10
350.030755
 20
242.235569
 30
0.0
 11
349.685161
 21
242.359696
 31
0.0
  0
LINE
  5
14E
330
8E
100
AcDbEntity
  8
CSLAYER2
  6
CONTINUOUS
 62
     3
100
AcDbLine
 10
349.685161
 20
242.359696
 30
0.0
 11
349.341541
 21
242.487917
 31
0.0
  0
LINE
  5
14F
330
8E
100
AcDbEntity
  8
CSLAYER2
  6
CONTINUOUS
 62
     3
100
AcDbLine
 10
349.341541
 20
242.487917
 30
0.0
 11
348.999924
 21
242.620203
 31
0.0
  0
LINE
  5
150
330
8E
100
AcDbEntity
  8
CSLAYER2
  6
CONTINUOUS
 62
     3
100
AcDbLine
 10
348.999924
 20
242.620203
 30
0.0
 11
348.66034
 21
242.756524
 31
0.0
  0
LINE
  5
151
330
8E
100
AcDbEntity
  8
CSLAYER2
  6
CONTINUOUS
 62
     3
100
AcDbLine
 10
348.66034
 20
242.756524
 30
0.0
 11
348.322817
 21
242.896851
 31
0.0
  0
LINE
  5
152
330
8E
100
AcDbEntity
  8
CSLAYER2
  6
CONTINUOUS
 62
     3
100
AcDbLine
 10
348.322817
 20
242.896851
 30
0.0
 11
347.987386
 21
243.041154
 31
0.0
  0
LINE
  5
153
330
8E
100
AcDbEntity
  8
CSLAYER2
  6
CONTINUOUS
 62
     3
100
AcDbLine
 10
347.987386
 20
243.041154
 30
0.0
 11
347.654075
 21
243.189403
 31
0.0
  0
LINE
  5
154
330
8E
100
AcDbEntity
  8
CSLAYER2
  6
CONTINUOUS
 62
     3
100
AcDbLine
 10
347.654075
 20
243.189403
 30
0.0
 11
347.322915
 21
243.34157
 31
0.0
  0
LINE
  5
155
330
8E
100
AcDbEntity
  8
CSLAYER2
  6
CONTINUOUS
 62
     3
100
AcDbLine
 10
347.322915
 20
243.34157
 30
0.0
 11
346.993934
 21
243.497625
 31
0.0
  0
LINE
  5
156
330
8E
100
AcDbEntity
  8
CSLAYER2
  6
CONTINUOUS
 62
     3
100
AcDbLine
 10
346.993934
 20
243.497625
 30
0.0
 11
346.667162
 21
243.657539
 31
0.0
  0
LINE
  5
157
330
8E
100
AcDbEntity
  8
CSLAYER2
  6
CONTINUOUS
 62
     3
100
AcDbLine
 10
346.667162
 20
243.657539
 30
0.0
 11
346.342629
 21
243.821281
 31
0.0
  0
LINE
  5
158
330
8E
100
AcDbEntity
  8
CSLAYER2
  6
CONTINUOUS
 62
     3
100
AcDbLine
 10
346.342629
 20
243.821281
 30
0.0
 11
346.020365
 21
243.988823
 31
0.0
  0
LINE
  5
159
330
8E
100
AcDbEntity
  8
CSLAYER2
  6
CONTINUOUS
 62
     3
100
AcDbLine
 10
346.020365
 20
243.988823
 30
0.0
 11
345.700397
 21
244.160135
 31
0.0
  0
LINE
  5
15A
330
8E
100
AcDbEntity
  8
CSLAYER2
  6
CONTINUOUS
 62
     3
100
AcDbLine
 10
345.700397
 20
244.160135
 30
0.0
 11
345.382756
 21
244.335188
 31
0.0
  0
LINE
  5
15B
330
8E
100
AcDbEntity
  8
CSLAYER2
  6
CONTINUOUS
 62
     3
100
AcDbLine
 10
345.382756
 20
244.335188
 30
0.0
 11
345.067472
 21
244.513952
 31
0.0
  0
LINE
  5
15C
330
8E
100
AcDbEntity
  8
CSLAYER2
  6
CONTINUOUS
 62
     3
100
AcDbLine
 10
345.067472
 20
244.513952
 30
0.0
 11
344.754574
 21
244.696397
 31
0.0
  0
LINE
  5
15D
330
8E
100
AcDbEntity
  8
CSLAYER2
  6
CONTINUOUS
 62
     3
100
AcDbLine
 10
344.754574
 20
244.696397
 30
0.0
 11
344.444091
 21
244.882495
 31
0.0
  0
LINE
  5
15E
330
8E
100
AcDbEntity
  8
CSLAYER2
  6
CONTINUOUS
 62
     3
100
AcDbLine
 10
344.444091
 20
244.882495
 30
0.0
 11
344.136053
 21
245.072216
 31
0.0
  0
LINE
  5
15F
330
8E
100
AcDbEntity
  8
CSLAYER2
  6
CONTINUOUS
 62
     3
100
AcDbLine
 10
344.136053
 20
245.072216
 30
0.0
 11
343.830488
 21
245.26553
 31
0.0
  0
LINE
  5
160
330
8E
100
AcDbEntity
  8
CSLAYER2
  6
CONTINUOUS
 62
     3
100
AcDbLine
 10
343.830488
 20
245.26553
 30
0.0
 11
343.527428
 21
245.462408
 31
0.0
  0
LINE
  5
161
330
8E
100
AcDbEntity
  8
CSLAYER2
  6
CONTINUOUS
 62
     3
100
AcDbLine
 10
343.527428
 20
245.462408
 30
0.0
 11
343.226901
 21
245.662821
 31
0.0
  0
LINE
  5
162
330
8E
100
AcDbEntity
  8
CSLAYER2
  6
CONTINUOUS
 62
     3
100
AcDbLine
 10
343.226901
 20
245.662821
 30
0.0
 11
342.928936
 21
245.866738
 31
0.0
  0
LINE
  5
163
330
8E
100
AcDbEntity
  8
CSLAYER2
  6
CONTINUOUS
 62
     3
100
AcDbLine
 10
342.928936
 20
245.866738
 30
0.0
 11
342.633563
 21
246.074131
 31
0.0
  0
LINE
  5
164
330
8E
100
AcDbEntity
  8
CSLAYER2
  6
CONTINUOUS
 62
     3
100
AcDbLine
 10
342.633563
 20
246.074131
 30
0.0
 11
342.340811
 21
246.284971
 31
0.0
  0
LINE
  5
165
330
8E
100
AcDbEntity
  8
CSLAYER2
  6
CONTINUOUS
 62
     3
100
AcDbLine
 10
342.340811
 20
246.284971
 30
0.0
 11
342.050711
 21
246.499226
 31
0.0
  0
LINE
  5
166
330
8E
100
AcDbEntity
  8
CSLAYER2
  6
CONTINUOUS
 62
     3
100
AcDbLine
 10
342.050711
 20
246.499226
 30
0.0
 11
341.763291
 21
246.716869
 31
0.0
  0
LINE
  5
167
330
8E
100
AcDbEntity
  8
CSLAYER2
  6
CONTINUOUS
 62
     3
100
AcDbLine
 10
341.763291
 20
246.716869
 30
0.0
 11
341.478581
 21
246.93787
 31
0.0
  0
LINE
  5
168
330
8E
100
AcDbEntity
  8
CSLAYER2
  6
CONTINUOUS
 62
     3
100
AcDbLine
 10
341.478581
 20
246.93787
 30
0.0
 11
341.196609
 21
247.162199
 31
0.0
  0
LINE
  5
169
330
8E
100
AcDbEntity
  8
CSLAYER2
  6
CONTINUOUS
 62
     3
100
AcDbLine
 10
341.196609
 20
247.162199
 30
0.0
 11
340.917407
 21
247.389827
 31
0.0
  0
LINE
  5
16A
330
8E
100
AcDbEntity
  8
CSLAYER2
  6
CONTINUOUS
 62
     3
100
AcDbLine
 10
340.917407
 20
247.389827
 30
0.0
 11
340.641003
 21
247.620725
 31
0.0
  0
LINE
  5
16B
330
8E
100
AcDbEntity
  8
CSLAYER2
  6
CONTINUOUS
 62
     3
100
AcDbLine
 10
340.641003
 20
247.620725
 30
0.0
 11
340.367426
 21
247.854862
 31
0.0
  0
LINE
  5
16C
330
8E
100
AcDbEntity
  8
CSLAYER2
  6
CONTINUOUS
 62
     3
100
AcDbLine
 10
340.367426
 20
247.854862
 30
0.0
 11
340.096707
 21
248.09221
 31
0.0
  0
LINE
  5
16D
330
8E
100
AcDbEntity
  8
CSLAYER2
  6
CONTINUOUS
 62
     3
100
AcDbLine
 10
340.096707
 20
248.09221
 30
0.0
 11
339.828874
 21
248.332739
 31
0.0
  0
LINE
  5
16E
330
8E
100
AcDbEntity
  8
CSLAYER2
  6
CONTINUOUS
 62
     3
100
AcDbLine
 10
339.828874
 20
248.332739
 30
0.0
 11
339.563957
 21
248.576419
 31
0.0
  0
LINE
  5
16F
330
8E
100
AcDbEntity
  8
CSLAYER2
  6
CONTINUOUS
 62
     3
100
AcDbLine
 10
339.563957
 20
248.576419
 30
0.0
 11
339.301985
 21
248.823222
 31
0.0
  0
LINE
  5
170
330
8E
100
AcDbEntity
  8
CSLAYER2
  6
CONTINUOUS
 62
     3
100
AcDbLine
 10
339.301985
 20
248.823222
 30
0.0
 11
339.042989
 21
249.073117
 31
0.0
  0
LINE
  5
171
330
8E
100
AcDbEntity
  8
CSLAYER2
  6
CONTINUOUS
 62
     3
100
AcDbLine
 10
339.042989
 20
249.073117
 30
0.0
 11
338.786996
 21
249.326076
 31
0.0
  0
LINE
  5
172
330
8E
100
AcDbEntity
  8
CSLAYER2
  6
CONTINUOUS
 62
     3
100
AcDbLine
 10
338.786996
 20
249.326076
 30
0.0
 11
338.534038
 21
249.582068
 31
0.0
  0
LINE
  5
173
330
8E
100
AcDbEntity
  8
CSLAYER2
  6
CONTINUOUS
 62
     3
100
AcDbLine
 10
338.534038
 20
249.582068
 30
0.0
 11
338.284143
 21
249.841065
 31
0.0
  0
LINE
  5
174
330
8E
100
AcDbEntity
  8
CSLAYER2
  6
CONTINUOUS
 62
     3
100
AcDbLine
 10
338.284143
 20
249.841065
 30
0.0
 11
338.03734
 21
250.103036
 31
0.0
  0
LINE
  5
175
330
8E
100
AcDbEntity
  8
CSLAYER2
  6
CONTINUOUS
 62
     3
100
AcDbLine
 10
338.03734
 20
250.103036
 30
0.0
 11
337.793659
 21
250.367953
 31
0.0
  0
LINE
  5
176
330
8E
100
AcDbEntity
  8
CSLAYER2
  6
CONTINUOUS
 62
     3
100
AcDbLine
 10
337.793659
 20
250.367953
 30
0.0
 11
337.553131
 21
250.635786
 31
0.0
  0
LINE
  5
177
330
8E
100
AcDbEntity
  8
CSLAYER2
  6
CONTINUOUS
 62
     3
100
AcDbLine
 10
337.553131
 20
250.635786
 30
0.0
 11
337.315783
 21
250.906506
 31
0.0
  0
LINE
  5
178
330
8E
100
AcDbEntity
  8
CSLAYER2
  6
CONTINUOUS
 62
     3
100
AcDbLine
 10
337.315783
 20
250.906506
 30
0.0
 11
337.081645
 21
251.180082
 31
0.0
  0
LINE
  5
179
330
8E
100
AcDbEntity
  8
CSLAYER2
  6
CONTINUOUS
 62
     3
100
AcDbLine
 10
337.081645
 20
251.180082
 30
0.0
 11
336.850748
 21
251.456487
 31
0.0
  0
LINE
  5
17A
330
8E
100
AcDbEntity
  8
CSLAYER2
  6
CONTINUOUS
 62
     3
100
AcDbLine
 10
336.850748
 20
251.456487
 30
0.0
 11
336.62312
 21
251.735689
 31
0.0
  0
LINE
  5
17B
330
8E
100
AcDbEntity
  8
CSLAYER2
  6
CONTINUOUS
 62
     3
100
AcDbLine
 10
336.62312
 20
251.735689
 30
0.0
 11
336.398791
 21
252.01766
 31
0.0
  0
LINE
  5
17C
330
8E
100
AcDbEntity
  8
CSLAYER2
  6
CONTINUOUS
 62
     3
100
AcDbLine
 10
336.398791
 20
252.01766
 30
0.0
 11
336.17779
 21
252.30237
 31
0.0
  0
LINE
  5
17D
330
8E
100
AcDbEntity
  8
CSLAYER2
  6
CONTINUOUS
 62
     3
100
AcDbLine
 10
336.17779
 20
252.30237
 30
0.0
 11
335.960147
 21
252.58979
 31
0.0
  0
LINE
  5
17E
330
8E
100
AcDbEntity
  8
CSLAYER2
  6
CONTINUOUS
 62
     3
100
AcDbLine
 10
335.960147
 20
252.58979
 30
0.0
 11
335.745891
 21
252.879891
 31
0.0
  0
LINE
  5
17F
330
8E
100
AcDbEntity
  8
CSLAYER2
  6
CONTINUOUS
 62
     3
100
AcDbLine
 10
335.745891
 20
252.879891
 30
0.0
 11
335.535052
 21
253.172642
 31
0.0
  0
LINE
  5
180
330
8E
100
AcDbEntity
  8
CSLAYER2
  6
CONTINUOUS
 62
     3
100
AcDbLine
 10
335.535052
 20
253.172642
 30
0.0
 11
335.327659
 21
253.468015
 31
0.0
  0
LINE
  5
181
330
8E
100
AcDbEntity
  8
CSLAYER2
  6
CONTINUOUS
 62
     3
100
AcDbLine
 10
335.327659
 20
253.468015
 30
0.0
 11
335.123741
 21
253.76598
 31
0.0
  0
LINE
  5
182
330
8E
100
AcDbEntity
  8
CSLAYER2
  6
CONTINUOUS
 62
     3
100
AcDbLine
 10
335.123741
 20
253.76598
 30
0.0
 11
334.923329
 21
254.066507
 31
0.0
  0
LINE
  5
183
330
8E
100
AcDbEntity
  8
CSLAYER2
  6
CONTINUOUS
 62
     3
100
AcDbLine
 10
334.923329
 20
254.066507
 30
0.0
 11
334.726451
 21
254.369568
 31
0.0
  0
LINE
  5
184
330
8E
100
AcDbEntity
  8
CSLAYER2
  6
CONTINUOUS
 62
     3
100
AcDbLine
 10
334.726451
 20
254.369568
 30
0.0
 11
334.533137
 21
254.675132
 31
0.0
  0
LINE
  5
185
330
8E
100
AcDbEntity
  8
CSLAYER2
  6
CONTINUOUS
 62
     3
100
AcDbLine
 10
334.533137
 20
254.675132
 30
0.0
 11
334.343416
 21
254.98317
 31
0.0
  0
LINE
  5
186
330
8E
100
AcDbEntity
  8
CSLAYER2
  6
CONTINUOUS
 62
     3
100
AcDbLine
 10
334.343416
 20
254.98317
 30
0.0
 11
334.157318
 21
255.293653
 31
0.0
  0
LINE
  5
187
330
8E
100
AcDbEntity
  8
CSLAYER2
  6
CONTINUOUS
 62
     3
100
AcDbLine
 10
334.157318
 20
255.293653
 30
0.0
 11
333.974872
 21
255.606552
 31
0.0
  0
LINE
  5
188
330
8E
100
AcDbEntity
  8
CSLAYER2
  6
CONTINUOUS
 62
     3
100
AcDbLine
 10
333.974872
 20
255.606552
 30
0.0
 11
333.796108
 21
255.921836
 31
0.0
  0
LINE
  5
189
330
8E
100
AcDbEntity
  8
CSLAYER2
  6
CONTINUOUS
 62
     3
100
AcDbLine
 10
333.796108
 20
255.921836
 30
0.0
 11
333.621056
 21
256.239476
 31
0.0
  0
LINE
  5
18A
330
8E
100
AcDbEntity
  8
CSLAYER2
  6
CONTINUOUS
 62
     3
100
AcDbLine
 10
333.621056
 20
256.239476
 30
0.0
 11
333.449744
 21
256.559444
 31
0.0
  0
LINE
  5
18B
330
8E
100
AcDbEntity
  8
CSLAYER2
  6
CONTINUOUS
 62
     3
100
AcDbLine
 10
333.449744
 20
256.559444
 30
0.0
 11
333.282202
 21
256.881709
 31
0.0
  0
LINE
  5
18C
330
8E
100
AcDbEntity
  8
CSLAYER2
  6
CONTINUOUS
 62
     3
100
AcDbLine
 10
333.282202
 20
256.881709
 30
0.0
 11
333.118459
 21
257.206242
 31
0.0
  0
LINE
  5
18D
330
8E
100
AcDbEntity
  8
CSLAYER2
  6
CONTINUOUS
 62
     3
100
AcDbLine
 10
333.118459
 20
257.206242
 30
0.0
 11
332.958546
 21
257.533014
 31
0.0
  0
LINE
  5
18E
330
8E
100
AcDbEntity
  8
CSLAYER2
  6
CONTINUOUS
 62
     3
100
AcDbLine
 10
332.958546
 20
257.533014
 30
0.0
 11
332.802491
 21
257.861994
 31
0.0
  0
LINE
  5
18F
330
8E
100
AcDbEntity
  8
CSLAYER2
  6
CONTINUOUS
 62
     3
100
AcDbLine
 10
332.802491
 20
257.861994
 30
0.0
 11
332.650324
 21
258.193155
 31
0.0
  0
LINE
  5
190
330
8E
100
AcDbEntity
  8
CSLAYER2
  6
CONTINUOUS
 62
     3
100
AcDbLine
 10
332.650324
 20
258.193155
 30
0.0
 11
332.502074
 21
258.526465
 31
0.0
  0
LINE
  5
191
330
8E
100
AcDbEntity
  8
CSLAYER2
  6
CONTINUOUS
 62
     3
100
AcDbLine
 10
332.502074
 20
258.526465
 30
0.0
 11
332.357771
 21
258.861897
 31
0.0
  0
LINE
  5
192
330
8E
100
AcDbEntity
  8
CSLAYER2
  6
CONTINUOUS
 62
     3
100
AcDbLine
 10
332.357771
 20
258.861897
 30
0.0
 11
332.217444
 21
259.199419
 31
0.0
  0
LINE
  5
193
330
8E
100
AcDbEntity
  8
CSLAYER2
  6
CONTINUOUS
 62
     3
100
AcDbLine
 10
332.217444
 20
259.199419
 30
0.0
 11
332.081124
 21
259.539004
 31
0.0
  0
LINE
  5
194
330
8E
100
AcDbEntity
  8
CSLAYER2
  6
CONTINUOUS
 62
     3
100
AcDbLine
 10
332.081124
 20
259.539004
 30
0.0
 11
331.948838
 21
259.880621
 31
0.0
  0
LINE
  5
195
330
8E
100
AcDbEntity
  8
CSLAYER2
  6
CONTINUOUS
 62
     3
100
AcDbLine
 10
331.948838
 20
259.880621
 30
0.0
 11
331.820617
 21
260.224241
 31
0.0
  0
LINE
  5
196
330
8E
100
AcDbEntity
  8
CSLAYER2
  6
CONTINUOUS
 62
     3
100
AcDbLine
 10
331.820617
 20
260.224241
 30
0.0
 11
331.696489
 21
260.569834
 31
0.0
  0
LINE
  5
197
330
8E
100
AcDbEntity
  8
CSLAYER2
  6
CONTINUOUS
 62
     3
100
AcDbLine
 10
331.696489
 20
260.569834
 30
0.0
 11
331.576486
 21
260.917371
 31
0.0
  0
LINE
  5
198
330
8E
100
AcDbEntity
  8
CSLAYER2
  6
CONTINUOUS
 62
     3
100
AcDbLine
 10
331.576486
 20
260.917371
 30
0.0
 11
331.460635
 21
261.266824
 31
0.0
  0
LINE
  5
199
330
8E
100
AcDbEntity
  8
CSLAYER2
  6
CONTINUOUS
 62
     3
100
AcDbLine
 10
331.460635
 20
261.266824
 30
0.0
 11
331.348967
 21
261.618161
 31
0.0
  0
LINE
  5
19A
330
8E
100
AcDbEntity
  8
CSLAYER2
  6
CONTINUOUS
 62
     3
100
AcDbLine
 10
331.348967
 20
261.618161
 30
0.0
 11
331.241511
 21
261.971354
 31
0.0
  0
LINE
  5
19B
330
8E
100
AcDbEntity
  8
CSLAYER2
  6
CONTINUOUS
 62
     3
100
AcDbLine
 10
331.241511
 20
261.971354
 30
0.0
 11
331.138296
 21
262.326373
 31
0.0
  0
LINE
  5
19C
330
8E
100
AcDbEntity
  8
CSLAYER2
  6
CONTINUOUS
 62
     3
100
AcDbLine
 10
331.138296
 20
262.326373
 30
0.0
 11
331.039351
 21
262.683189
 31
0.0
  0
LINE
  5
19D
330
8E
100
AcDbEntity
  8
CSLAYER2
  6
CONTINUOUS
 62
     3
100
AcDbLine
 10
331.039351
 20
262.683189
 30
0.0
 11
330.944707
 21
263.041772
 31
0.0
  0
LINE
  5
19E
330
8E
100
AcDbEntity
  8
CSLAYER2
  6
CONTINUOUS
 62
     3
100
AcDbLine
 10
330.944707
 20
263.041772
 30
0.0
 11
330.854393
 21
263.402093
 31
0.0
  0
LINE
  5
19F
330
8E
100
AcDbEntity
  8
CSLAYER2
  6
CONTINUOUS
 62
     3
100
AcDbLine
 10
330.854393
 20
263.402093
 30
0.0
 11
330.768438
 21
263.764123
 31
0.0
  0
LINE
  5
1A0
330
8E
100
AcDbEntity
  8
CSLAYER2
  6
CONTINUOUS
 62
     3
100
AcDbLine
 10
330.768438
 20
263.764123
 30
0.0
 11
330.686871
 21
264.127831
 31
0.0
  0
LINE
  5
1A1
330
8E
100
AcDbEntity
  8
CSLAYER2
  6
CONTINUOUS
 62
     3
100
AcDbLine
 10
330.686871
 20
264.127831
 30
0.0
 11
330.609723
 21
264.493189
 31
0.0
  0
LINE
  5
1A2
330
8E
100
AcDbEntity
  8
CSLAYER2
  6
CONTINUOUS
 62
     3
100
AcDbLine
 10
330.609723
 20
264.493189
 30
0.0
 11
330.537021
 21
264.860168
 31
0.0
  0
LINE
  5
1A3
330
8E
100
AcDbEntity
  8
CSLAYER2
  6
CONTINUOUS
 62
     3
100
AcDbLine
 10
330.537021
 20
264.860168
 30
0.0
 11
330.468797
 21
265.228736
 31
0.0
  0
LINE
  5
1A4
330
8E
100
AcDbEntity
  8
CSLAYER2
  6
CONTINUOUS
 62
     3
100
AcDbLine
 10
330.468797
 20
265.228736
 30
0.0
 11
330.40508
 21
265.598866
 31
0.0
  0
LINE
  5
1A5
330
8E
100
AcDbEntity
  8
CSLAYER2
  6
CONTINUOUS
 62
     3
100
AcDbLine
 10
330.40508
 20
265.598866
 30
0.0
 11
330.345898
 21
265.970528
 31
0.0
  0
LINE
  5
1A6
330
8E
100
AcDbEntity
  8
CSLAYER2
  6
CONTINUOUS
 62
     3
100
AcDbLine
 10
330.345898
 20
265.970528
 30
0.0
 11
330.291281
 21
266.343692
 31
0.0
  0
LINE
  5
1A7
330
8E
100
AcDbEntity
  8
CSLAYER2
  6
CONTINUOUS
 62
     3
100
AcDbLine
 10
330.291281
 20
266.343692
 30
0.0
 11
330.241259
 21
266.718329
 31
0.0
  0
LINE
  5
1A8
330
8E
100
AcDbEntity
  8
CSLAYER2
  6
CONTINUOUS
 62
     3
100
AcDbLine
 10
330.241259
 20
266.718329
 30
0.0
 11
330.195862
 21
267.094409
 31
0.0
  0
LINE
  5
1A9
330
8E
100
AcDbEntity
  8
CSLAYER2
  6
CONTINUOUS
 62
     3
100
AcDbLine
 10
330.195862
 20
267.094409
 30
0.0
 11
330.155118
 21
267.471903
 31
0.0
  0
LINE
  5
1AA
330
8E
100
AcDbEntity
  8
CSLAYER2
  6
CONTINUOUS
 62
     3
100
AcDbLine
 10
330.155118
 20
267.471903
 30
0.0
 11
330.119057
 21
267.850782
 31
0.0
  0
LINE
  5
1AB
330
8E
100
AcDbEntity
  8
CSLAYER2
  6
CONTINUOUS
 62
     3
100
AcDbLine
 10
330.119057
 20
267.850782
 30
0.0
 11
330.087708
 21
268.231015
 31
0.0
  0
LINE
  5
1AC
330
8E
100
AcDbEntity
  8
CSLAYER2
  6
CONTINUOUS
 62
     3
100
AcDbLine
 10
330.087708
 20
268.231015
 30
0.0
 11
330.061102
 21
268.612574
 31
0.0
  0
LINE
  5
1AD
330
8E
100
AcDbEntity
  8
CSLAYER2
  6
CONTINUOUS
 62
     3
100
AcDbLine
 10
330.061102
 20
268.612574
 30
0.0
 11
330.039267
 21
268.99543
 31
0.0
  0
LINE
  5
1AE
330
8E
100
AcDbEntity
  8
CSLAYER2
  6
CONTINUOUS
 62
     3
100
AcDbLine
 10
330.039267
 20
268.99543
 30
0.0
 11
330.022233
 21
269.379551
 31
0.0
  0
LINE
  5
1AF
330
8E
100
AcDbEntity
  8
CSLAYER2
  6
CONTINUOUS
 62
     3
100
AcDbLine
 10
330.022233
 20
269.379551
 30
0.0
 11
330.01003
 21
269.76491
 31
0.0
  0
LINE
  5
1B0
330
8E
100
AcDbEntity
  8
CSLAYER2
  6
CONTINUOUS
 62
     3
100
AcDbLine
 10
330.01003
 20
269.76491
 30
0.0
 11
330.002686
 21
270.151477
 31
0.0
  0
LINE
  5
1B1
330
8E
100
AcDbEntity
  8
CSLAYER2
  6
CONTINUOUS
 62
     3
100
AcDbLine
 10
330.002686
 20
270.151477
 30
0.0
 11
330.000232
 21
270.539222
 31
0.0
  0
LINE
  5
1B2
330
8E
100
AcDbEntity
  8
CSLAYER2
  6
CONTINUOUS
 62
     3
100
AcDbLine
 10
330.000232
 20
270.539222
 30
0.0
 11
330.000232
 21
275.770948
 31
0.0
  0
LINE
  5
1B3
330
8E
100
AcDbEntity
  8
CSLAYER2
  6
CONTINUOUS
 62
     3
100
AcDbLine
 10
330.000232
 20
275.770948
 30
0.0
 11
330.000232
 21
462.00053
 31
0.0
  0
LINE
  5
1B4
330
8E
100
AcDbEntity
  8
CSLAYER2
  6
CONTINUOUS
 62
     3
100
AcDbLine
 10
330.000232
 20
462.00053
 30
0.0
 11
390.000399
 21
462.00053
 31
0.0
  0
LINE
  5
1B5
330
8E
100
AcDbEntity
  8
CSLAYER2
  6
CONTINUOUS
 62
     3
100
AcDbLine
 10
390.000399
 20
462.00053
 30
0.0
 11
390.000399
 21
275.770948
 31
0.0
  0
LINE
  5
1B6
330
8E
100
AcDbEntity
  8
CSLAYER2
  6
CONTINUOUS
 62
     3
100
AcDbLine
 10
390.000399
 20
275.770948
 30
0.0
 11
390.000226
 21
270.539222
 31
0.0
  0
LINE
  5
1B7
330
8E
100
AcDbEntity
  8
CSLAYER2
  6
CONTINUOUS
 62
     3
100
AcDbLine
 10
410.42535
 20
420.822655
 30
0.0
 11
410.42535
 21
462.00053
 31
0.0
  0
LINE
  5
1B8
330
8E
100
AcDbEntity
  8
CSLAYER2
  6
CONTINUOUS
 62
     3
100
AcDbLine
 10
410.42535
 20
462.00053
 30
0.0
 11
550.125442
 21
462.00053
 31
0.0
  0
LINE
  5
1B9
330
8E
100
AcDbEntity
  8
CSLAYER2
  6
CONTINUOUS
 62
     3
100
AcDbLine
 10
550.125442
 20
462.00053
 30
0.0
 11
550.125442
 21
429.994883
 31
0.0
  0
LINE
  5
1BA
330
8E
100
AcDbEntity
  8
CSLAYER2
  6
CONTINUOUS
 62
     3
100
AcDbLine
 10
550.125442
 20
429.994883
 30
0.0
 11
550.125442
 21
390.278073
 31
0.0
  0
LINE
  5
1BB
330
8E
100
AcDbEntity
  8
CSLAYER2
  6
CONTINUOUS
 62
     3
100
AcDbLine
 10
550.125442
 20
390.278073
 30
0.0
 11
550.123805
 21
390.019585
 31
0.0
  0
LINE
  5
1BC
330
8E
100
AcDbEntity
  8
CSLAYER2
  6
CONTINUOUS
 62
     3
100
AcDbLine
 10
550.123805
 20
390.019585
 30
0.0
 11
550.11891
 21
389.761881
 31
0.0
  0
LINE
  5
1BD
330
8E
100
AcDbEntity
  8
CSLAYER2
  6
CONTINUOUS
 62
     3
100
AcDbLine
 10
550.11891
 20
389.761881
 30
0.0
 11
550.110774
 21
389.504983
 31
0.0
  0
LINE
  5
1BE
330
8E
100
AcDbEntity
  8
CSLAYER2
  6
CONTINUOUS
 62
     3
100
AcDbLine
 10
550.110774
 20
389.504983
 30
0.0
 11
550.099417
 21
389.248909
 31
0.0
  0
LINE
  5
1BF
330
8E
100
AcDbEntity
  8
CSLAYER2
  6
CONTINUOUS
 62
     3
100
AcDbLine
 10
550.099417
 20
389.248909
 30
0.0
 11
550.08486
 21
388.993679
 31
0.0
  0
LINE
  5
1C0
330
8E
100
AcDbEntity
  8
CSLAYER2
  6
CONTINUOUS
 62
     3
100
AcDbLine
 10
550.08486
 20
388.993679
 30
0.0
 11
550.067123
 21
388.739314
 31
0.0
  0
LINE
  5
1C1
330
8E
100
AcDbEntity
  8
CSLAYER2
  6
CONTINUOUS
 62
     3
100
AcDbLine
 10
550.067123
 20
388.739314
 30
0.0
 11
550.046223
 21
388.485831
 31
0.0
  0
LINE
  5
1C2
330
8E
100
AcDbEntity
  8
CSLAYER2
  6
CONTINUOUS
 62
     3
100
AcDbLine
 10
550.046223
 20
388.485831
 30
0.0
 11
550.022182
 21
388.233252
 31
0.0
  0
LINE
  5
1C3
330
8E
100
AcDbEntity
  8
CSLAYER2
  6
CONTINUOUS
 62
     3
100
AcDbLine
 10
550.022182
 20
388.233252
 30
0.0
 11
549.995019
 21
387.981596
 31
0.0
  0
LINE
  5
1C4
330
8E
100
AcDbEntity
  8
CSLAYER2
  6
CONTINUOUS
 62
     3
100
AcDbLine
 10
549.995019
 20
387.981596
 30
0.0
 11
549.964753
 21
387.730882
 31
0.0
  0
LINE
  5
1C5
330
8E
100
AcDbEntity
  8
CSLAYER2
  6
CONTINUOUS
 62
     3
100
AcDbLine
 10
549.964753
 20
387.730882
 30
0.0
 11
549.931404
 21
387.48113
 31
0.0
  0
LINE
  5
1C6
330
8E
100
AcDbEntity
  8
CSLAYER2
  6
CONTINUOUS
 62
     3
100
AcDbLine
 10
549.931404
 20
387.48113
 30
0.0
 11
549.894992
 21
387.23236
 31
0.0
  0
LINE
  5
1C7
330
8E
100
AcDbEntity
  8
CSLAYER2
  6
CONTINUOUS
 62
     3
100
AcDbLine
 10
549.894992
 20
387.23236
 30
0.0
 11
549.855537
 21
386.984591
 31
0.0
  0
LINE
  5
1C8
330
8E
100
AcDbEntity
  8
CSLAYER2
  6
CONTINUOUS
 62
     3
100
AcDbLine
 10
549.855537
 20
386.984591
 30
0.0
 11
549.813057
 21
386.737843
 31
0.0
  0
LINE
  5
1C9
330
8E
100
AcDbEntity
  8
CSLAYER2
  6
CONTINUOUS
 62
     3
100
AcDbLine
 10
549.813057
 20
386.737843
 30
0.0
 11
549.767574
 21
386.492136
 31
0.0
  0
LINE
  5
1CA
330
8E
100
AcDbEntity
  8
CSLAYER2
  6
CONTINUOUS
 62
     3
100
AcDbLine
 10
549.767574
 20
386.492136
 30
0.0
 11
549.719105
 21
386.247489
 31
0.0
  0
LINE
  5
1CB
330
8E
100
AcDbEntity
  8
CSLAYER2
  6
CONTINUOUS
 62
     3
100
AcDbLine
 10
549.719105
 20
386.247489
 30
0.0
 11
549.667672
 21
386.003922
 31
0.0
  0
LINE
  5
1CC
330
8E
100
AcDbEntity
  8
CSLAYER2
  6
CONTINUOUS
 62
     3
100
AcDbLine
 10
549.667672
 20
386.003922
 30
0.0
 11
549.613293
 21
385.761454
 31
0.0
  0
LINE
  5
1CD
330
8E
100
AcDbEntity
  8
CSLAYER2
  6
CONTINUOUS
 62
     3
100
AcDbLine
 10
549.613293
 20
385.761454
 30
0.0
 11
549.555988
 21
385.520105
 31
0.0
  0
LINE
  5
1CE
330
8E
100
AcDbEntity
  8
CSLAYER2
  6
CONTINUOUS
 62
     3
100
AcDbLine
 10
549.555988
 20
385.520105
 30
0.0
 11
549.495778
 21
385.279896
 31
0.0
  0
LINE
  5
1CF
330
8E
100
AcDbEntity
  8
CSLAYER2
  6
CONTINUOUS
 62
     3
100
AcDbLine
 10
549.495778
 20
385.279896
 30
0.0
 11
549.43268
 21
385.040845
 31
0.0
  0
LINE
  5
1D0
330
8E
100
AcDbEntity
  8
CSLAYER2
  6
CONTINUOUS
 62
     3
100
AcDbLine
 10
549.43268
 20
385.040845
 30
0.0
 11
549.366716
 21
384.802971
 31
0.0
  0
LINE
  5
1D1
330
8E
100
AcDbEntity
  8
CSLAYER2
  6
CONTINUOUS
 62
     3
100
AcDbLine
 10
549.366716
 20
384.802971
 30
0.0
 11
549.297905
 21
384.566296
 31
0.0
  0
LINE
  5
1D2
330
8E
100
AcDbEntity
  8
CSLAYER2
  6
CONTINUOUS
 62
     3
100
AcDbLine
 10
549.297905
 20
384.566296
 30
0.0
 11
549.226266
 21
384.330838
 31
0.0
  0
LINE
  5
1D3
330
8E
100
AcDbEntity
  8
CSLAYER2
  6
CONTINUOUS
 62
     3
100
AcDbLine
 10
549.226266
 20
384.330838
 30
0.0
 11
549.151819
 21
384.096616
 31
0.0
  0
LINE
  5
1D4
330
8E
100
AcDbEntity
  8
CSLAYER2
  6
CONTINUOUS
 62
     3
100
AcDbLine
 10
549.151819
 20
384.096616
 30
0.0
 11
549.074584
 21
383.863652
 31
0.0
  0
LINE
  5
1D5
330
8E
100
AcDbEntity
  8
CSLAYER2
  6
CONTINUOUS
 62
     3
100
AcDbLine
 10
549.074584
 20
383.863652
 30
0.0
 11
548.99458
 21
383.631964
 31
0.0
  0
LINE
  5
1D6
330
8E
100
AcDbEntity
  8
CSLAYER2
  6
CONTINUOUS
 62
     3
100
AcDbLine
 10
548.99458
 20
383.631964
 30
0.0
 11
548.911827
 21
383.401571
 31
0.0
  0
LINE
  5
1D7
330
8E
100
AcDbEntity
  8
CSLAYER2
  6
CONTINUOUS
 62
     3
100
AcDbLine
 10
548.911827
 20
383.401571
 30
0.0
 11
548.826345
 21
383.172494
 31
0.0
  0
LINE
  5
1D8
330
8E
100
AcDbEntity
  8
CSLAYER2
  6
CONTINUOUS
 62
     3
100
AcDbLine
 10
548.826345
 20
383.172494
 30
0.0
 11
548.738153
 21
382.944752
 31
0.0
  0
LINE
  5
1D9
330
8E
100
AcDbEntity
  8
CSLAYER2
  6
CONTINUOUS
 62
     3
100
AcDbLine
 10
548.738153
 20
382.944752
 30
0.0
 11
548.647271
 21
382.718365
 31
0.0
  0
LINE
  5
1DA
330
8E
100
AcDbEntity
  8
CSLAYER2
  6
CONTINUOUS
 62
     3
100
AcDbLine
 10
548.647271
 20
382.718365
 30
0.0
 11
548.553718
 21
382.493353
 31
0.0
  0
LINE
  5
1DB
330
8E
100
AcDbEntity
  8
CSLAYER2
  6
CONTINUOUS
 62
     3
100
AcDbLine
 10
548.553718
 20
382.493353
 30
0.0
 11
548.457515
 21
382.269735
 31
0.0
  0
LINE
  5
1DC
330
8E
100
AcDbEntity
  8
CSLAYER2
  6
CONTINUOUS
 62
     3
100
AcDbLine
 10
548.457515
 20
382.269735
 30
0.0
 11
548.35868
 21
382.04753
 31
0.0
  0
LINE
  5
1DD
330
8E
100
AcDbEntity
  8
CSLAYER2
  6
CONTINUOUS
 62
     3
100
AcDbLine
 10
548.35868
 20
382.04753
 30
0.0
 11
548.257234
 21
381.826758
 31
0.0
  0
LINE
  5
1DE
330
8E
100
AcDbEntity
  8
CSLAYER2
  6
CONTINUOUS
 62
     3
100
AcDbLine
 10
548.257234
 20
381.826758
 30
0.0
 11
548.153196
 21
381.60744
 31
0.0
  0
LINE
  5
1DF
330
8E
100
AcDbEntity
  8
CSLAYER2
  6
CONTINUOUS
 62
     3
100
AcDbLine
 10
548.153196
 20
381.60744
 30
0.0
 11
548.046585
 21
381.389594
 31
0.0
  0
LINE
  5
1E0
330
8E
100
AcDbEntity
  8
CSLAYER2
  6
CONTINUOUS
 62
     3
100
AcDbLine
 10
548.046585
 20
381.389594
 30
0.0
 11
547.937422
 21
381.173241
 31
0.0
  0
LINE
  5
1E1
330
8E
100
AcDbEntity
  8
CSLAYER2
  6
CONTINUOUS
 62
     3
100
AcDbLine
 10
547.937422
 20
381.173241
 30
0.0
 11
547.825726
 21
380.958399
 31
0.0
  0
LINE
  5
1E2
330
8E
100
AcDbEntity
  8
CSLAYER2
  6
CONTINUOUS
 62
     3
100
AcDbLine
 10
547.825726
 20
380.958399
 30
0.0
 11
547.711516
 21
380.745089
 31
0.0
  0
LINE
  5
1E3
330
8E
100
AcDbEntity
  8
CSLAYER2
  6
CONTINUOUS
 62
     3
100
AcDbLine
 10
547.711516
 20
380.745089
 30
0.0
 11
547.594813
 21
380.53333
 31
0.0
  0
LINE
  5
1E4
330
8E
100
AcDbEntity
  8
CSLAYER2
  6
CONTINUOUS
 62
     3
100
AcDbLine
 10
547.594813
 20
380.53333
 30
0.0
 11
547.475635
 21
380.323142
 31
0.0
  0
LINE
  5
1E5
330
8E
100
AcDbEntity
  8
CSLAYER2
  6
CONTINUOUS
 62
     3
100
AcDbLine
 10
547.475635
 20
380.323142
 30
0.0
 11
547.354004
 21
380.114544
 31
0.0
  0
LINE
  5
1E6
330
8E
100
AcDbEntity
  8
CSLAYER2
  6
CONTINUOUS
 62
     3
100
AcDbLine
 10
547.354004
 20
380.114544
 30
0.0
 11
547.229937
 21
379.907557
 31
0.0
  0
LINE
  5
1E7
330
8E
100
AcDbEntity
  8
CSLAYER2
  6
CONTINUOUS
 62
     3
100
AcDbLine
 10
547.229937
 20
379.907557
 30
0.0
 11
547.103455
 21
379.702199
 31
0.0
  0
LINE
  5
1E8
330
8E
100
AcDbEntity
  8
CSLAYER2
  6
CONTINUOUS
 62
     3
100
AcDbLine
 10
547.103455
 20
379.702199
 30
0.0
 11
546.974577
 21
379.49849
 31
0.0
  0
LINE
  5
1E9
330
8E
100
AcDbEntity
  8
CSLAYER2
  6
CONTINUOUS
 62
     3
100
AcDbLine
 10
546.974577
 20
379.49849
 30
0.0
 11
546.843324
 21
379.296451
 31
0.0
  0
LINE
  5
1EA
330
8E
100
AcDbEntity
  8
CSLAYER2
  6
CONTINUOUS
 62
     3
100
AcDbLine
 10
546.843324
 20
379.296451
 30
0.0
 11
546.709714
 21
379.0961
 31
0.0
  0
LINE
  5
1EB
330
8E
100
AcDbEntity
  8
CSLAYER2
  6
CONTINUOUS
 62
     3
100
AcDbLine
 10
546.709714
 20
379.0961
 30
0.0
 11
546.573768
 21
378.897457
 31
0.0
  0
LINE
  5
1EC
330
8E
100
AcDbEntity
  8
CSLAYER2
  6
CONTINUOUS
 62
     3
100
AcDbLine
 10
546.573768
 20
378.897457
 30
0.0
 11
546.435504
 21
378.700542
 31
0.0
  0
LINE
  5
1ED
330
8E
100
AcDbEntity
  8
CSLAYER2
  6
CONTINUOUS
 62
     3
100
AcDbLine
 10
546.435504
 20
378.700542
 30
0.0
 11
546.294944
 21
378.505375
 31
0.0
  0
LINE
  5
1EE
330
8E
100
AcDbEntity
  8
CSLAYER2
  6
CONTINUOUS
 62
     3
100
AcDbLine
 10
546.294944
 20
378.505375
 30
0.0
 11
546.152105
 21
378.311975
 31
0.0
  0
LINE
  5
1EF
330
8E
100
AcDbEntity
  8
CSLAYER2
  6
CONTINUOUS
 62
     3
100
AcDbLine
 10
546.152105
 20
378.311975
 30
0.0
 11
546.007008
 21
378.120362
 31
0.0
  0
LINE
  5
1F0
330
8E
100
AcDbEntity
  8
CSLAYER2
  6
CONTINUOUS
 62
     3
100
AcDbLine
 10
546.007008
 20
378.120362
 30
0.0
 11
545.859673
 21
377.930555
 31
0.0
  0
LINE
  5
1F1
330
8E
100
AcDbEntity
  8
CSLAYER2
  6
CONTINUOUS
 62
     3
100
AcDbLine
 10
545.859673
 20
377.930555
 30
0.0
 11
545.710119
 21
377.742574
 31
0.0
  0
LINE
  5
1F2
330
8E
100
AcDbEntity
  8
CSLAYER2
  6
CONTINUOUS
 62
     3
100
AcDbLine
 10
545.710119
 20
377.742574
 30
0.0
 11
545.558366
 21
377.556439
 31
0.0
  0
LINE
  5
1F3
330
8E
100
AcDbEntity
  8
CSLAYER2
  6
CONTINUOUS
 62
     3
100
AcDbLine
 10
545.558366
 20
377.556439
 30
0.0
 11
545.404434
 21
377.37217
 31
0.0
  0
LINE
  5
1F4
330
8E
100
AcDbEntity
  8
CSLAYER2
  6
CONTINUOUS
 62
     3
100
AcDbLine
 10
545.404434
 20
377.37217
 30
0.0
 11
545.248341
 21
377.189785
 31
0.0
  0
LINE
  5
1F5
330
8E
100
AcDbEntity
  8
CSLAYER2
  6
CONTINUOUS
 62
     3
100
AcDbLine
 10
545.248341
 20
377.189785
 30
0.0
 11
545.090108
 21
377.009305
 31
0.0
  0
LINE
  5
1F6
330
8E
100
AcDbEntity
  8
CSLAYER2
  6
CONTINUOUS
 62
     3
100
AcDbLine
 10
545.090108
 20
377.009305
 30
0.0
 11
544.929755
 21
376.83075
 31
0.0
  0
LINE
  5
1F7
330
8E
100
AcDbEntity
  8
CSLAYER2
  6
CONTINUOUS
 62
     3
100
AcDbLine
 10
544.929755
 20
376.83075
 30
0.0
 11
544.7673
 21
376.654138
 31
0.0
  0
LINE
  5
1F8
330
8E
100
AcDbEntity
  8
CSLAYER2
  6
CONTINUOUS
 62
     3
100
AcDbLine
 10
544.7673
 20
376.654138
 30
0.0
 11
544.602764
 21
376.47949
 31
0.0
  0
LINE
  5
1F9
330
8E
100
AcDbEntity
  8
CSLAYER2
  6
CONTINUOUS
 62
     3
100
AcDbLine
 10
544.602764
 20
376.47949
 30
0.0
 11
544.436167
 21
376.306825
 31
0.0
  0
LINE
  5
1FA
330
8E
100
AcDbEntity
  8
CSLAYER2
  6
CONTINUOUS
 62
     3
100
AcDbLine
 10
544.436167
 20
376.306825
 30
0.0
 11
544.267527
 21
376.136163
 31
0.0
  0
LINE
  5
1FB
330
8E
100
AcDbEntity
  8
CSLAYER2
  6
CONTINUOUS
 62
     3
100
AcDbLine
 10
544.267527
 20
376.136163
 30
0.0
 11
544.096865
 21
375.967523
 31
0.0
  0
LINE
  5
1FC
330
8E
100
AcDbEntity
  8
CSLAYER2
  6
CONTINUOUS
 62
     3
100
AcDbLine
 10
544.096865
 20
375.967523
 30
0.0
 11
543.9242
 21
375.800925
 31
0.0
  0
LINE
  5
1FD
330
8E
100
AcDbEntity
  8
CSLAYER2
  6
CONTINUOUS
 62
     3
100
AcDbLine
 10
543.9242
 20
375.800925
 30
0.0
 11
543.749551
 21
375.636389
 31
0.0
  0
LINE
  5
1FE
330
8E
100
AcDbEntity
  8
CSLAYER2
  6
CONTINUOUS
 62
     3
100
AcDbLine
 10
543.749551
 20
375.636389
 30
0.0
 11
543.57294
 21
375.473935
 31
0.0
  0
LINE
  5
1FF
330
8E
100
AcDbEntity
  8
CSLAYER2
  6
CONTINUOUS
 62
     3
100
AcDbLine
 10
543.57294
 20
375.473935
 30
0.0
 11
543.394384
 21
375.313581
 31
0.0
  0
LINE
  5
200
330
8E
100
AcDbEntity
  8
CSLAYER2
  6
CONTINUOUS
 62
     3
100
AcDbLine
 10
543.394384
 20
375.313581
 30
0.0
 11
543.213904
 21
375.155348
 31
0.0
  0
LINE
  5
201
330
8E
100
AcDbEntity
  8
CSLAYER2
  6
CONTINUOUS
 62
     3
100
AcDbLine
 10
543.213904
 20
375.155348
 30
0.0
 11
543.031519
 21
374.999256
 31
0.0
  0
LINE
  5
202
330
8E
100
AcDbEntity
  8
CSLAYER2
  6
CONTINUOUS
 62
     3
100
AcDbLine
 10
543.031519
 20
374.999256
 30
0.0
 11
542.84725
 21
374.845323
 31
0.0
  0
LINE
  5
203
330
8E
100
AcDbEntity
  8
CSLAYER2
  6
CONTINUOUS
 62
     3
100
AcDbLine
 10
542.84725
 20
374.845323
 30
0.0
 11
542.661115
 21
374.69357
 31
0.0
  0
LINE
  5
204
330
8E
100
AcDbEntity
  8
CSLAYER2
  6
CONTINUOUS
 62
     3
100
AcDbLine
 10
542.661115
 20
374.69357
 30
0.0
 11
542.473134
 21
374.544016
 31
0.0
  0
LINE
  5
205
330
8E
100
AcDbEntity
  8
CSLAYER2
  6
CONTINUOUS
 62
     3
100
AcDbLine
 10
542.473134
 20
374.544016
 30
0.0
 11
542.283327
 21
374.396681
 31
0.0
  0
LINE
  5
206
330
8E
100
AcDbEntity
  8
CSLAYER2
  6
CONTINUOUS
 62
     3
100
AcDbLine
 10
542.283327
 20
374.396681
 30
0.0
 11
542.091714
 21
374.251584
 31
0.0
  0
LINE
  5
207
330
8E
100
AcDbEntity
  8
CSLAYER2
  6
CONTINUOUS
 62
     3
100
AcDbLine
 10
542.091714
 20
374.251584
 30
0.0
 11
541.898314
 21
374.108746
 31
0.0
  0
LINE
  5
208
330
8E
100
AcDbEntity
  8
CSLAYER2
  6
CONTINUOUS
 62
     3
100
AcDbLine
 10
541.898314
 20
374.108746
 30
0.0
 11
541.703147
 21
373.968185
 31
0.0
  0
LINE
  5
209
330
8E
100
AcDbEntity
  8
CSLAYER2
  6
CONTINUOUS
 62
     3
100
AcDbLine
 10
541.703147
 20
373.968185
 30
0.0
 11
541.506232
 21
373.829921
 31
0.0
  0
LINE
  5
20A
330
8E
100
AcDbEntity
  8
CSLAYER2
  6
CONTINUOUS
 62
     3
100
AcDbLine
 10
541.506232
 20
373.829921
 30
0.0
 11
541.30759
 21
373.693975
 31
0.0
  0
LINE
  5
20B
330
8E
100
AcDbEntity
  8
CSLAYER2
  6
CONTINUOUS
 62
     3
100
AcDbLine
 10
541.30759
 20
373.693975
 30
0.0
 11
541.107239
 21
373.560365
 31
0.0
  0
LINE
  5
20C
330
8E
100
AcDbEntity
  8
CSLAYER2
  6
CONTINUOUS
 62
     3
100
AcDbLine
 10
541.107239
 20
373.560365
 30
0.0
 11
540.905199
 21
373.429112
 31
0.0
  0
LINE
  5
20D
330
8E
100
AcDbEntity
  8
CSLAYER2
  6
CONTINUOUS
 62
     3
100
AcDbLine
 10
540.905199
 20
373.429112
 30
0.0
 11
540.701491
 21
373.300234
 31
0.0
  0
LINE
  5
20E
330
8E
100
AcDbEntity
  8
CSLAYER2
  6
CONTINUOUS
 62
     3
100
AcDbLine
 10
540.701491
 20
373.300234
 30
0.0
 11
540.496133
 21
373.173752
 31
0.0
  0
LINE
  5
20F
330
8E
100
AcDbEntity
  8
CSLAYER2
  6
CONTINUOUS
 62
     3
100
AcDbLine
 10
540.496133
 20
373.173752
 30
0.0
 11
540.289145
 21
373.049686
 31
0.0
  0
LINE
  5
210
330
8E
100
AcDbEntity
  8
CSLAYER2
  6
CONTINUOUS
 62
     3
100
AcDbLine
 10
540.289145
 20
373.049686
 30
0.0
 11
540.080547
 21
372.928054
 31
0.0
  0
LINE
  5
211
330
8E
100
AcDbEntity
  8
CSLAYER2
  6
CONTINUOUS
 62
     3
100
AcDbLine
 10
540.080547
 20
372.928054
 30
0.0
 11
539.870359
 21
372.808876
 31
0.0
  0
LINE
  5
212
330
8E
100
AcDbEntity
  8
CSLAYER2
  6
CONTINUOUS
 62
     3
100
AcDbLine
 10
539.870359
 20
372.808876
 30
0.0
 11
539.6586
 21
372.692173
 31
0.0
  0
LINE
  5
213
330
8E
100
AcDbEntity
  8
CSLAYER2
  6
CONTINUOUS
 62
     3
100
AcDbLine
 10
539.6586
 20
372.692173
 30
0.0
 11
539.44529
 21
372.577963
 31
0.0
  0
LINE
  5
214
330
8E
100
AcDbEntity
  8
CSLAYER2
  6
CONTINUOUS
 62
     3
100
AcDbLine
 10
539.44529
 20
372.577963
 30
0.0
 11
539.230449
 21
372.466267
 31
0.0
  0
LINE
  5
215
330
8E
100
AcDbEntity
  8
CSLAYER2
  6
CONTINUOUS
 62
     3
100
AcDbLine
 10
539.230449
 20
372.466267
 30
0.0
 11
539.014095
 21
372.357104
 31
0.0
  0
LINE
  5
216
330
8E
100
AcDbEntity
  8
CSLAYER2
  6
CONTINUOUS
 62
     3
100
AcDbLine
 10
539.014095
 20
372.357104
 30
0.0
 11
538.796249
 21
372.250494
 31
0.0
  0
LINE
  5
217
330
8E
100
AcDbEntity
  8
CSLAYER2
  6
CONTINUOUS
 62
     3
100
AcDbLine
 10
538.796249
 20
372.250494
 30
0.0
 11
538.576931
 21
372.146455
 31
0.0
  0
LINE
  5
218
330
8E
100
AcDbEntity
  8
CSLAYER2
  6
CONTINUOUS
 62
     3
100
AcDbLine
 10
538.576931
 20
372.146455
 30
0.0
 11
538.35616
 21
372.045009
 31
0.0
  0
LINE
  5
219
330
8E
100
AcDbEntity
  8
CSLAYER2
  6
CONTINUOUS
 62
     3
100
AcDbLine
 10
538.35616
 20
372.045009
 30
0.0
 11
538.133955
 21
371.946175
 31
0.0
  0
LINE
  5
21A
330
8E
100
AcDbEntity
  8
CSLAYER2
  6
CONTINUOUS
 62
     3
100
AcDbLine
 10
538.133955
 20
371.946175
 30
0.0
 11
537.910336
 21
371.849971
 31
0.0
  0
LINE
  5
21B
330
8E
100
AcDbEntity
  8
CSLAYER2
  6
CONTINUOUS
 62
     3
100
AcDbLine
 10
537.910336
 20
371.849971
 30
0.0
 11
537.685324
 21
371.756418
 31
0.0
  0
LINE
  5
21C
330
8E
100
AcDbEntity
  8
CSLAYER2
  6
CONTINUOUS
 62
     3
100
AcDbLine
 10
537.685324
 20
371.756418
 30
0.0
 11
537.458937
 21
371.665536
 31
0.0
  0
LINE
  5
21D
330
8E
100
AcDbEntity
  8
CSLAYER2
  6
CONTINUOUS
 62
     3
100
AcDbLine
 10
537.458937
 20
371.665536
 30
0.0
 11
537.231195
 21
371.577344
 31
0.0
  0
LINE
  5
21E
330
8E
100
AcDbEntity
  8
CSLAYER2
  6
CONTINUOUS
 62
     3
100
AcDbLine
 10
537.231195
 20
371.577344
 30
0.0
 11
537.002118
 21
371.491862
 31
0.0
  0
LINE
  5
21F
330
8E
100
AcDbEntity
  8
CSLAYER2
  6
CONTINUOUS
 62
     3
100
AcDbLine
 10
537.002118
 20
371.491862
 30
0.0
 11
536.771726
 21
371.409109
 31
0.0
  0
LINE
  5
220
330
8E
100
AcDbEntity
  8
CSLAYER2
  6
CONTINUOUS
 62
     3
100
AcDbLine
 10
536.771726
 20
371.409109
 30
0.0
 11
536.540037
 21
371.329105
 31
0.0
  0
LINE
  5
221
330
8E
100
AcDbEntity
  8
CSLAYER2
  6
CONTINUOUS
 62
     3
100
AcDbLine
 10
536.540037
 20
371.329105
 30
0.0
 11
536.307073
 21
371.25187
 31
0.0
  0
LINE
  5
222
330
8E
100
AcDbEntity
  8
CSLAYER2
  6
CONTINUOUS
 62
     3
100
AcDbLine
 10
536.307073
 20
371.25187
 30
0.0
 11
536.072852
 21
371.177423
 31
0.0
  0
LINE
  5
223
330
8E
100
AcDbEntity
  8
CSLAYER2
  6
CONTINUOUS
 62
     3
100
AcDbLine
 10
536.072852
 20
371.177423
 30
0.0
 11
535.837393
 21
371.105784
 31
0.0
  0
LINE
  5
224
330
8E
100
AcDbEntity
  8
CSLAYER2
  6
CONTINUOUS
 62
     3
100
AcDbLine
 10
535.837393
 20
371.105784
 30
0.0
 11
535.600718
 21
371.036973
 31
0.0
  0
LINE
  5
225
330
8E
100
AcDbEntity
  8
CSLAYER2
  6
CONTINUOUS
 62
     3
100
AcDbLine
 10
535.600718
 20
371.036973
 30
0.0
 11
535.362845
 21
370.971009
 31
0.0
  0
LINE
  5
226
330
8E
100
AcDbEntity
  8
CSLAYER2
  6
CONTINUOUS
 62
     3
100
AcDbLine
 10
535.362845
 20
370.971009
 30
0.0
 11
535.123794
 21
370.907912
 31
0.0
  0
LINE
  5
227
330
8E
100
AcDbEntity
  8
CSLAYER2
  6
CONTINUOUS
 62
     3
100
AcDbLine
 10
535.123794
 20
370.907912
 30
0.0
 11
534.883584
 21
370.847701
 31
0.0
  0
LINE
  5
228
330
8E
100
AcDbEntity
  8
CSLAYER2
  6
CONTINUOUS
 62
     3
100
AcDbLine
 10
534.883584
 20
370.847701
 30
0.0
 11
534.642235
 21
370.790396
 31
0.0
  0
LINE
  5
229
330
8E
100
AcDbEntity
  8
CSLAYER2
  6
CONTINUOUS
 62
     3
100
AcDbLine
 10
534.642235
 20
370.790396
 30
0.0
 11
534.399768
 21
370.736017
 31
0.0
  0
LINE
  5
22A
330
8E
100
AcDbEntity
  8
CSLAYER2
  6
CONTINUOUS
 62
     3
100
AcDbLine
 10
534.399768
 20
370.736017
 30
0.0
 11
534.156201
 21
370.684584
 31
0.0
  0
LINE
  5
22B
330
8E
100
AcDbEntity
  8
CSLAYER2
  6
CONTINUOUS
 62
     3
100
AcDbLine
 10
534.156201
 20
370.684584
 30
0.0
 11
533.911553
 21
370.636116
 31
0.0
  0
LINE
  5
22C
330
8E
100
AcDbEntity
  8
CSLAYER2
  6
CONTINUOUS
 62
     3
100
AcDbLine
 10
533.911553
 20
370.636116
 30
0.0
 11
533.665846
 21
370.590632
 31
0.0
  0
LINE
  5
22D
330
8E
100
AcDbEntity
  8
CSLAYER2
  6
CONTINUOUS
 62
     3
100
AcDbLine
 10
533.665846
 20
370.590632
 30
0.0
 11
533.419098
 21
370.548152
 31
0.0
  0
LINE
  5
22E
330
8E
100
AcDbEntity
  8
CSLAYER2
  6
CONTINUOUS
 62
     3
100
AcDbLine
 10
533.419098
 20
370.548152
 30
0.0
 11
533.171329
 21
370.508697
 31
0.0
  0
LINE
  5
22F
330
8E
100
AcDbEntity
  8
CSLAYER2
  6
CONTINUOUS
 62
     3
100
AcDbLine
 10
533.171329
 20
370.508697
 30
0.0
 11
532.922559
 21
370.472285
 31
0.0
  0
LINE
  5
230
330
8E
100
AcDbEntity
  8
CSLAYER2
  6
CONTINUOUS
 62
     3
100
AcDbLine
 10
532.922559
 20
370.472285
 30
0.0
 11
532.672807
 21
370.438936
 31
0.0
  0
LINE
  5
231
330
8E
100
AcDbEntity
  8
CSLAYER2
  6
CONTINUOUS
 62
     3
100
AcDbLine
 10
532.672807
 20
370.438936
 30
0.0
 11
532.422094
 21
370.408671
 31
0.0
  0
LINE
  5
232
330
8E
100
AcDbEntity
  8
CSLAYER2
  6
CONTINUOUS
 62
     3
100
AcDbLine
 10
532.422094
 20
370.408671
 30
0.0
 11
532.170437
 21
370.381507
 31
0.0
  0
LINE
  5
233
330
8E
100
AcDbEntity
  8
CSLAYER2
  6
CONTINUOUS
 62
     3
100
AcDbLine
 10
532.170437
 20
370.381507
 30
0.0
 11
531.917858
 21
370.357466
 31
0.0
  0
LINE
  5
234
330
8E
100
AcDbEntity
  8
CSLAYER2
  6
CONTINUOUS
 62
     3
100
AcDbLine
 10
531.917858
 20
370.357466
 30
0.0
 11
531.664376
 21
370.336567
 31
0.0
  0
LINE
  5
235
330
8E
100
AcDbEntity
  8
CSLAYER2
  6
CONTINUOUS
 62
     3
100
AcDbLine
 10
531.664376
 20
370.336567
 30
0.0
 11
531.41001
 21
370.318829
 31
0.0
  0
LINE
  5
236
330
8E
100
AcDbEntity
  8
CSLAYER2
  6
CONTINUOUS
 62
     3
100
AcDbLine
 10
531.41001
 20
370.318829
 30
0.0
 11
531.15478
 21
370.304272
 31
0.0
  0
LINE
  5
237
330
8E
100
AcDbEntity
  8
CSLAYER2
  6
CONTINUOUS
 62
     3
100
AcDbLine
 10
531.15478
 20
370.304272
 30
0.0
 11
530.898706
 21
370.292916
 31
0.0
  0
LINE
  5
238
330
8E
100
AcDbEntity
  8
CSLAYER2
  6
CONTINUOUS
 62
     3
100
AcDbLine
 10
530.898706
 20
370.292916
 30
0.0
 11
530.641808
 21
370.28478
 31
0.0
  0
LINE
  5
239
330
8E
100
AcDbEntity
  8
CSLAYER2
  6
CONTINUOUS
 62
     3
100
AcDbLine
 10
530.641808
 20
370.28478
 30
0.0
 11
530.384105
 21
370.279884
 31
0.0
  0
LINE
  5
23A
330
8E
100
AcDbEntity
  8
CSLAYER2
  6
CONTINUOUS
 62
     3
100
AcDbLine
 10
530.384105
 20
370.279884
 30
0.0
 11
530.125616
 21
370.278247
 31
0.0
  0
LINE
  5
23B
330
8E
100
AcDbEntity
  8
CSLAYER2
  6
CONTINUOUS
 62
     3
100
AcDbLine
 10
530.125616
 20
370.278247
 30
0.0
 11
523.314141
 21
370.278247
 31
0.0
  0
LINE
  5
23C
330
8E
100
AcDbEntity
  8
CSLAYER2
  6
CONTINUOUS
 62
     3
100
AcDbLine
 10
523.314141
 20
370.278247
 30
0.0
 11
497.914296
 21
370.278247
 31
0.0
  0
LINE
  5
23D
330
8E
100
AcDbEntity
  8
CSLAYER2
  6
CONTINUOUS
 62
     3
100
AcDbLine
 10
497.914296
 20
370.278247
 30
0.0
 11
474.630948
 21
370.278247
 31
0.0
  0
LINE
  5
23E
330
8E
100
AcDbEntity
  8
CSLAYER2
  6
CONTINUOUS
 62
     3
100
AcDbLine
 10
474.630948
 20
370.278247
 30
0.0
 11
444.292211
 21
370.278247
 31
0.0
  0
LINE
  5
23F
330
8E
100
AcDbEntity
  8
CSLAYER2
  6
CONTINUOUS
 62
     3
100
AcDbLine
 10
444.292211
 20
370.278247
 30
0.0
 11
430.425176
 21
370.278247
 31
0.0
  0
LINE
  5
240
330
8E
100
AcDbEntity
  8
CSLAYER2
  6
CONTINUOUS
 62
     3
100
AcDbLine
 10
430.425176
 20
370.278247
 30
0.0
 11
430.166687
 21
370.279884
 31
0.0
  0
LINE
  5
241
330
8E
100
AcDbEntity
  8
CSLAYER2
  6
CONTINUOUS
 62
     3
100
AcDbLine
 10
430.166687
 20
370.279884
 30
0.0
 11
429.908984
 21
370.28478
 31
0.0
  0
LINE
  5
242
330
8E
100
AcDbEntity
  8
CSLAYER2
  6
CONTINUOUS
 62
     3
100
AcDbLine
 10
429.908984
 20
370.28478
 30
0.0
 11
429.652085
 21
370.292916
 31
0.0
  0
LINE
  5
243
330
8E
100
AcDbEntity
  8
CSLAYER2
  6
CONTINUOUS
 62
     3
100
AcDbLine
 10
429.652085
 20
370.292916
 30
0.0
 11
429.396011
 21
370.304272
 31
0.0
  0
LINE
  5
244
330
8E
100
AcDbEntity
  8
CSLAYER2
  6
CONTINUOUS
 62
     3
100
AcDbLine
 10
429.396011
 20
370.304272
 30
0.0
 11
429.140782
 21
370.318829
 31
0.0
  0
LINE
  5
245
330
8E
100
AcDbEntity
  8
CSLAYER2
  6
CONTINUOUS
 62
     3
100
AcDbLine
 10
429.140782
 20
370.318829
 30
0.0
 11
428.886416
 21
370.336567
 31
0.0
  0
LINE
  5
246
330
8E
100
AcDbEntity
  8
CSLAYER2
  6
CONTINUOUS
 62
     3
100
AcDbLine
 10
428.886416
 20
370.336567
 30
0.0
 11
428.632933
 21
370.357466
 31
0.0
  0
LINE
  5
247
330
8E
100
AcDbEntity
  8
CSLAYER2
  6
CONTINUOUS
 62
     3
100
AcDbLine
 10
428.632933
 20
370.357466
 30
0.0
 11
428.380354
 21
370.381507
 31
0.0
  0
LINE
  5
248
330
8E
100
AcDbEntity
  8
CSLAYER2
  6
CONTINUOUS
 62
     3
100
AcDbLine
 10
428.380354
 20
370.381507
 30
0.0
 11
428.128698
 21
370.408671
 31
0.0
  0
LINE
  5
249
330
8E
100
AcDbEntity
  8
CSLAYER2
  6
CONTINUOUS
 62
     3
100
AcDbLine
 10
428.128698
 20
370.408671
 30
0.0
 11
427.877984
 21
370.438936
 31
0.0
  0
LINE
  5
24A
330
8E
100
AcDbEntity
  8
CSLAYER2
  6
CONTINUOUS
 62
     3
100
AcDbLine
 10
427.877984
 20
370.438936
 30
0.0
 11
427.628232
 21
370.472285
 31
0.0
  0
LINE
  5
24B
330
8E
100
AcDbEntity
  8
CSLAYER2
  6
CONTINUOUS
 62
     3
100
AcDbLine
 10
427.628232
 20
370.472285
 30
0.0
 11
427.379462
 21
370.508697
 31
0.0
  0
LINE
  5
24C
330
8E
100
AcDbEntity
  8
CSLAYER2
  6
CONTINUOUS
 62
     3
100
AcDbLine
 10
427.379462
 20
370.508697
 30
0.0
 11
427.131693
 21
370.548152
 31
0.0
  0
LINE
  5
24D
330
8E
100
AcDbEntity
  8
CSLAYER2
  6
CONTINUOUS
 62
     3
100
AcDbLine
 10
427.131693
 20
370.548152
 30
0.0
 11
426.884945
 21
370.590632
 31
0.0
  0
LINE
  5
24E
330
8E
100
AcDbEntity
  8
CSLAYER2
  6
CONTINUOUS
 62
     3
100
AcDbLine
 10
426.884945
 20
370.590632
 30
0.0
 11
426.639238
 21
370.636116
 31
0.0
  0
LINE
  5
24F
330
8E
100
AcDbEntity
  8
CSLAYER2
  6
CONTINUOUS
 62
     3
100
AcDbLine
 10
426.639238
 20
370.636116
 30
0.0
 11
426.394591
 21
370.684584
 31
0.0
  0
LINE
  5
250
330
8E
100
AcDbEntity
  8
CSLAYER2
  6
CONTINUOUS
 62
     3
100
AcDbLine
 10
426.394591
 20
370.684584
 30
0.0
 11
426.151024
 21
370.736017
 31
0.0
  0
LINE
  5
251
330
8E
100
AcDbEntity
  8
CSLAYER2
  6
CONTINUOUS
 62
     3
100
AcDbLine
 10
426.151024
 20
370.736017
 30
0.0
 11
425.908556
 21
370.790396
 31
0.0
  0
LINE
  5
252
330
8E
100
AcDbEntity
  8
CSLAYER2
  6
CONTINUOUS
 62
     3
100
AcDbLine
 10
425.908556
 20
370.790396
 30
0.0
 11
425.667208
 21
370.847701
 31
0.0
  0
LINE
  5
253
330
8E
100
AcDbEntity
  8
CSLAYER2
  6
CONTINUOUS
 62
     3
100
AcDbLine
 10
425.667208
 20
370.847701
 30
0.0
 11
425.426998
 21
370.907912
 31
0.0
  0
LINE
  5
254
330
8E
100
AcDbEntity
  8
CSLAYER2
  6
CONTINUOUS
 62
     3
100
AcDbLine
 10
425.426998
 20
370.907912
 30
0.0
 11
425.187947
 21
370.971009
 31
0.0
  0
LINE
  5
255
330
8E
100
AcDbEntity
  8
CSLAYER2
  6
CONTINUOUS
 62
     3
100
AcDbLine
 10
425.187947
 20
370.971009
 30
0.0
 11
424.950074
 21
371.036973
 31
0.0
  0
LINE
  5
256
330
8E
100
AcDbEntity
  8
CSLAYER2
  6
CONTINUOUS
 62
     3
100
AcDbLine
 10
424.950074
 20
371.036973
 30
0.0
 11
424.713398
 21
371.105784
 31
0.0
  0
LINE
  5
257
330
8E
100
AcDbEntity
  8
CSLAYER2
  6
CONTINUOUS
 62
     3
100
AcDbLine
 10
424.713398
 20
371.105784
 30
0.0
 11
424.47794
 21
371.177423
 31
0.0
  0
LINE
  5
258
330
8E
100
AcDbEntity
  8
CSLAYER2
  6
CONTINUOUS
 62
     3
100
AcDbLine
 10
424.47794
 20
371.177423
 30
0.0
 11
424.243719
 21
371.25187
 31
0.0
  0
LINE
  5
259
330
8E
100
AcDbEntity
  8
CSLAYER2
  6
CONTINUOUS
 62
     3
100
AcDbLine
 10
424.243719
 20
371.25187
 30
0.0
 11
424.010754
 21
371.329105
 31
0.0
  0
LINE
  5
25A
330
8E
100
AcDbEntity
  8
CSLAYER2
  6
CONTINUOUS
 62
     3
100
AcDbLine
 10
424.010754
 20
371.329105
 30
0.0
 11
423.779066
 21
371.409109
 31
0.0
  0
LINE
  5
25B
330
8E
100
AcDbEntity
  8
CSLAYER2
  6
CONTINUOUS
 62
     3
100
AcDbLine
 10
423.779066
 20
371.409109
 30
0.0
 11
423.548673
 21
371.491862
 31
0.0
  0
LINE
  5
25C
330
8E
100
AcDbEntity
  8
CSLAYER2
  6
CONTINUOUS
 62
     3
100
AcDbLine
 10
423.548673
 20
371.491862
 30
0.0
 11
423.319596
 21
371.577344
 31
0.0
  0
LINE
  5
25D
330
8E
100
AcDbEntity
  8
CSLAYER2
  6
CONTINUOUS
 62
     3
100
AcDbLine
 10
423.319596
 20
371.577344
 30
0.0
 11
423.091855
 21
371.665536
 31
0.0
  0
LINE
  5
25E
330
8E
100
AcDbEntity
  8
CSLAYER2
  6
CONTINUOUS
 62
     3
100
AcDbLine
 10
423.091855
 20
371.665536
 30
0.0
 11
422.865468
 21
371.756418
 31
0.0
  0
LINE
  5
25F
330
8E
100
AcDbEntity
  8
CSLAYER2
  6
CONTINUOUS
 62
     3
100
AcDbLine
 10
422.865468
 20
371.756418
 30
0.0
 11
422.640455
 21
371.849971
 31
0.0
  0
LINE
  5
260
330
8E
100
AcDbEntity
  8
CSLAYER2
  6
CONTINUOUS
 62
     3
100
AcDbLine
 10
422.640455
 20
371.849971
 30
0.0
 11
422.416837
 21
371.946175
 31
0.0
  0
LINE
  5
261
330
8E
100
AcDbEntity
  8
CSLAYER2
  6
CONTINUOUS
 62
     3
100
AcDbLine
 10
422.416837
 20
371.946175
 30
0.0
 11
422.194632
 21
372.045009
 31
0.0
  0
LINE
  5
262
330
8E
100
AcDbEntity
  8
CSLAYER2
  6
CONTINUOUS
 62
     3
100
AcDbLine
 10
422.194632
 20
372.045009
 30
0.0
 11
421.973861
 21
372.146455
 31
0.0
  0
LINE
  5
263
330
8E
100
AcDbEntity
  8
CSLAYER2
  6
CONTINUOUS
 62
     3
100
AcDbLine
 10
421.973861
 20
372.146455
 30
0.0
 11
421.754542
 21
372.250494
 31
0.0
  0
LINE
  5
264
330
8E
100
AcDbEntity
  8
CSLAYER2
  6
CONTINUOUS
 62
     3
100
AcDbLine
 10
421.754542
 20
372.250494
 30
0.0
 11
421.536696
 21
372.357104
 31
0.0
  0
LINE
  5
265
330
8E
100
AcDbEntity
  8
CSLAYER2
  6
CONTINUOUS
 62
     3
100
AcDbLine
 10
421.536696
 20
372.357104
 30
0.0
 11
421.320343
 21
372.466267
 31
0.0
  0
LINE
  5
266
330
8E
100
AcDbEntity
  8
CSLAYER2
  6
CONTINUOUS
 62
     3
100
AcDbLine
 10
421.320343
 20
372.466267
 30
0.0
 11
421.105501
 21
372.577963
 31
0.0
  0
LINE
  5
267
330
8E
100
AcDbEntity
  8
CSLAYER2
  6
CONTINUOUS
 62
     3
100
AcDbLine
 10
421.105501
 20
372.577963
 30
0.0
 11
420.892191
 21
372.692173
 31
0.0
  0
LINE
  5
268
330
8E
100
AcDbEntity
  8
CSLAYER2
  6
CONTINUOUS
 62
     3
100
AcDbLine
 10
420.892191
 20
372.692173
 30
0.0
 11
420.680432
 21
372.808876
 31
0.0
  0
LINE
  5
269
330
8E
100
AcDbEntity
  8
CSLAYER2
  6
CONTINUOUS
 62
     3
100
AcDbLine
 10
420.680432
 20
372.808876
 30
0.0
 11
420.470244
 21
372.928054
 31
0.0
  0
LINE
  5
26A
330
8E
100
AcDbEntity
  8
CSLAYER2
  6
CONTINUOUS
 62
     3
100
AcDbLine
 10
420.470244
 20
372.928054
 30
0.0
 11
420.261646
 21
373.049686
 31
0.0
  0
LINE
  5
26B
330
8E
100
AcDbEntity
  8
CSLAYER2
  6
CONTINUOUS
 62
     3
100
AcDbLine
 10
420.261646
 20
373.049686
 30
0.0
 11
420.054659
 21
373.173752
 31
0.0
  0
LINE
  5
26C
330
8E
100
AcDbEntity
  8
CSLAYER2
  6
CONTINUOUS
 62
     3
100
AcDbLine
 10
420.054659
 20
373.173752
 30
0.0
 11
419.849301
 21
373.300234
 31
0.0
  0
LINE
  5
26D
330
8E
100
AcDbEntity
  8
CSLAYER2
  6
CONTINUOUS
 62
     3
100
AcDbLine
 10
419.849301
 20
373.300234
 30
0.0
 11
419.645592
 21
373.429112
 31
0.0
  0
LINE
  5
26E
330
8E
100
AcDbEntity
  8
CSLAYER2
  6
CONTINUOUS
 62
     3
100
AcDbLine
 10
419.645592
 20
373.429112
 30
0.0
 11
419.443553
 21
373.560365
 31
0.0
  0
LINE
  5
26F
330
8E
100
AcDbEntity
  8
CSLAYER2
  6
CONTINUOUS
 62
     3
100
AcDbLine
 10
419.443553
 20
373.560365
 30
0.0
 11
419.243202
 21
373.693975
 31
0.0
  0
LINE
  5
270
330
8E
100
AcDbEntity
  8
CSLAYER2
  6
CONTINUOUS
 62
     3
100
AcDbLine
 10
419.243202
 20
373.693975
 30
0.0
 11
419.044559
 21
373.829921
 31
0.0
  0
LINE
  5
271
330
8E
100
AcDbEntity
  8
CSLAYER2
  6
CONTINUOUS
 62
     3
100
AcDbLine
 10
419.044559
 20
373.829921
 30
0.0
 11
418.847644
 21
373.968185
 31
0.0
  0
LINE
  5
272
330
8E
100
AcDbEntity
  8
CSLAYER2
  6
CONTINUOUS
 62
     3
100
AcDbLine
 10
418.847644
 20
373.968185
 30
0.0
 11
418.652477
 21
374.108746
 31
0.0
  0
LINE
  5
273
330
8E
100
AcDbEntity
  8
CSLAYER2
  6
CONTINUOUS
 62
     3
100
AcDbLine
 10
418.652477
 20
374.108746
 30
0.0
 11
418.459077
 21
374.251584
 31
0.0
  0
LINE
  5
274
330
8E
100
AcDbEntity
  8
CSLAYER2
  6
CONTINUOUS
 62
     3
100
AcDbLine
 10
418.459077
 20
374.251584
 30
0.0
 11
418.267464
 21
374.396681
 31
0.0
  0
LINE
  5
275
330
8E
100
AcDbEntity
  8
CSLAYER2
  6
CONTINUOUS
 62
     3
100
AcDbLine
 10
418.267464
 20
374.396681
 30
0.0
 11
418.077657
 21
374.544016
 31
0.0
  0
LINE
  5
276
330
8E
100
AcDbEntity
  8
CSLAYER2
  6
CONTINUOUS
 62
     3
100
AcDbLine
 10
418.077657
 20
374.544016
 30
0.0
 11
417.889677
 21
374.69357
 31
0.0
  0
LINE
  5
277
330
8E
100
AcDbEntity
  8
CSLAYER2
  6
CONTINUOUS
 62
     3
100
AcDbLine
 10
417.889677
 20
374.69357
 30
0.0
 11
417.703542
 21
374.845323
 31
0.0
  0
LINE
  5
278
330
8E
100
AcDbEntity
  8
CSLAYER2
  6
CONTINUOUS
 62
     3
100
AcDbLine
 10
417.703542
 20
374.845323
 30
0.0
 11
417.519272
 21
374.999256
 31
0.0
  0
LINE
  5
279
330
8E
100
AcDbEntity
  8
CSLAYER2
  6
CONTINUOUS
 62
     3
100
AcDbLine
 10
417.519272
 20
374.999256
 30
0.0
 11
417.336888
 21
375.155348
 31
0.0
  0
LINE
  5
27A
330
8E
100
AcDbEntity
  8
CSLAYER2
  6
CONTINUOUS
 62
     3
100
AcDbLine
 10
417.336888
 20
375.155348
 30
0.0
 11
417.156408
 21
375.313581
 31
0.0
  0
LINE
  5
27B
330
8E
100
AcDbEntity
  8
CSLAYER2
  6
CONTINUOUS
 62
     3
100
AcDbLine
 10
417.156408
 20
375.313581
 30
0.0
 11
416.977852
 21
375.473935
 31
0.0
  0
LINE
  5
27C
330
8E
100
AcDbEntity
  8
CSLAYER2
  6
CONTINUOUS
 62
     3
100
AcDbLine
 10
416.977852
 20
375.473935
 30
0.0
 11
416.80124
 21
375.636389
 31
0.0
  0
LINE
  5
27D
330
8E
100
AcDbEntity
  8
CSLAYER2
  6
CONTINUOUS
 62
     3
100
AcDbLine
 10
416.80124
 20
375.636389
 30
0.0
 11
416.626592
 21
375.800925
 31
0.0
  0
LINE
  5
27E
330
8E
100
AcDbEntity
  8
CSLAYER2
  6
CONTINUOUS
 62
     3
100
AcDbLine
 10
416.626592
 20
375.800925
 30
0.0
 11
416.453927
 21
375.967523
 31
0.0
  0
LINE
  5
27F
330
8E
100
AcDbEntity
  8
CSLAYER2
  6
CONTINUOUS
 62
     3
100
AcDbLine
 10
416.453927
 20
375.967523
 30
0.0
 11
416.283265
 21
376.136163
 31
0.0
  0
LINE
  5
280
330
8E
100
AcDbEntity
  8
CSLAYER2
  6
CONTINUOUS
 62
     3
100
AcDbLine
 10
416.283265
 20
376.136163
 30
0.0
 11
416.114625
 21
376.306825
 31
0.0
  0
LINE
  5
281
330
8E
100
AcDbEntity
  8
CSLAYER2
  6
CONTINUOUS
 62
     3
100
AcDbLine
 10
416.114625
 20
376.306825
 30
0.0
 11
415.948027
 21
376.47949
 31
0.0
  0
LINE
  5
282
330
8E
100
AcDbEntity
  8
CSLAYER2
  6
CONTINUOUS
 62
     3
100
AcDbLine
 10
415.948027
 20
376.47949
 30
0.0
 11
415.783491
 21
376.654138
 31
0.0
  0
LINE
  5
283
330
8E
100
AcDbEntity
  8
CSLAYER2
  6
CONTINUOUS
 62
     3
100
AcDbLine
 10
415.783491
 20
376.654138
 30
0.0
 11
415.621037
 21
376.83075
 31
0.0
  0
LINE
  5
284
330
8E
100
AcDbEntity
  8
CSLAYER2
  6
CONTINUOUS
 62
     3
100
AcDbLine
 10
415.621037
 20
376.83075
 30
0.0
 11
415.460683
 21
377.009305
 31
0.0
  0
LINE
  5
285
330
8E
100
AcDbEntity
  8
CSLAYER2
  6
CONTINUOUS
 62
     3
100
AcDbLine
 10
415.460683
 20
377.009305
 30
0.0
 11
415.30245
 21
377.189785
 31
0.0
  0
LINE
  5
286
330
8E
100
AcDbEntity
  8
CSLAYER2
  6
CONTINUOUS
 62
     3
100
AcDbLine
 10
415.30245
 20
377.189785
 30
0.0
 11
415.146358
 21
377.37217
 31
0.0
  0
LINE
  5
287
330
8E
100
AcDbEntity
  8
CSLAYER2
  6
CONTINUOUS
 62
     3
100
AcDbLine
 10
415.146358
 20
377.37217
 30
0.0
 11
414.992425
 21
377.556439
 31
0.0
  0
LINE
  5
288
330
8E
100
AcDbEntity
  8
CSLAYER2
  6
CONTINUOUS
 62
     3
100
AcDbLine
 10
414.992425
 20
377.556439
 30
0.0
 11
414.840672
 21
377.742574
 31
0.0
  0
LINE
  5
289
330
8E
100
AcDbEntity
  8
CSLAYER2
  6
CONTINUOUS
 62
     3
100
AcDbLine
 10
414.840672
 20
377.742574
 30
0.0
 11
414.691118
 21
377.930555
 31
0.0
  0
LINE
  5
28A
330
8E
100
AcDbEntity
  8
CSLAYER2
  6
CONTINUOUS
 62
     3
100
AcDbLine
 10
414.691118
 20
377.930555
 30
0.0
 11
414.543783
 21
378.120362
 31
0.0
  0
LINE
  5
28B
330
8E
100
AcDbEntity
  8
CSLAYER2
  6
CONTINUOUS
 62
     3
100
AcDbLine
 10
414.543783
 20
378.120362
 30
0.0
 11
414.398686
 21
378.311975
 31
0.0
  0
LINE
  5
28C
330
8E
100
AcDbEntity
  8
CSLAYER2
  6
CONTINUOUS
 62
     3
100
AcDbLine
 10
414.398686
 20
378.311975
 30
0.0
 11
414.255848
 21
378.505375
 31
0.0
  0
LINE
  5
28D
330
8E
100
AcDbEntity
  8
CSLAYER2
  6
CONTINUOUS
 62
     3
100
AcDbLine
 10
414.255848
 20
378.505375
 30
0.0
 11
414.115287
 21
378.700542
 31
0.0
  0
LINE
  5
28E
330
8E
100
AcDbEntity
  8
CSLAYER2
  6
CONTINUOUS
 62
     3
100
AcDbLine
 10
414.115287
 20
378.700542
 30
0.0
 11
413.977024
 21
378.897457
 31
0.0
  0
LINE
  5
28F
330
8E
100
AcDbEntity
  8
CSLAYER2
  6
CONTINUOUS
 62
     3
100
AcDbLine
 10
413.977024
 20
378.897457
 30
0.0
 11
413.841077
 21
379.0961
 31
0.0
  0
LINE
  5
290
330
8E
100
AcDbEntity
  8
CSLAYER2
  6
CONTINUOUS
 62
     3
100
AcDbLine
 10
413.841077
 20
379.0961
 30
0.0
 11
413.707468
 21
379.296451
 31
0.0
  0
LINE
  5
291
330
8E
100
AcDbEntity
  8
CSLAYER2
  6
CONTINUOUS
 62
     3
100
AcDbLine
 10
413.707468
 20
379.296451
 30
0.0
 11
413.576214
 21
379.49849
 31
0.0
  0
LINE
  5
292
330
8E
100
AcDbEntity
  8
CSLAYER2
  6
CONTINUOUS
 62
     3
100
AcDbLine
 10
413.576214
 20
379.49849
 30
0.0
 11
413.447337
 21
379.702199
 31
0.0
  0
LINE
  5
293
330
8E
100
AcDbEntity
  8
CSLAYER2
  6
CONTINUOUS
 62
     3
100
AcDbLine
 10
413.447337
 20
379.702199
 30
0.0
 11
413.320855
 21
379.907557
 31
0.0
  0
LINE
  5
294
330
8E
100
AcDbEntity
  8
CSLAYER2
  6
CONTINUOUS
 62
     3
100
AcDbLine
 10
413.320855
 20
379.907557
 30
0.0
 11
413.196788
 21
380.114544
 31
0.0
  0
LINE
  5
295
330
8E
100
AcDbEntity
  8
CSLAYER2
  6
CONTINUOUS
 62
     3
100
AcDbLine
 10
413.196788
 20
380.114544
 30
0.0
 11
413.075156
 21
380.323142
 31
0.0
  0
LINE
  5
296
330
8E
100
AcDbEntity
  8
CSLAYER2
  6
CONTINUOUS
 62
     3
100
AcDbLine
 10
413.075156
 20
380.323142
 30
0.0
 11
412.955979
 21
380.53333
 31
0.0
  0
LINE
  5
297
330
8E
100
AcDbEntity
  8
CSLAYER2
  6
CONTINUOUS
 62
     3
100
AcDbLine
 10
412.955979
 20
380.53333
 30
0.0
 11
412.839275
 21
380.745089
 31
0.0
  0
LINE
  5
298
330
8E
100
AcDbEntity
  8
CSLAYER2
  6
CONTINUOUS
 62
     3
100
AcDbLine
 10
412.839275
 20
380.745089
 30
0.0
 11
412.725066
 21
380.958399
 31
0.0
  0
LINE
  5
299
330
8E
100
AcDbEntity
  8
CSLAYER2
  6
CONTINUOUS
 62
     3
100
AcDbLine
 10
412.725066
 20
380.958399
 30
0.0
 11
412.61337
 21
381.173241
 31
0.0
  0
LINE
  5
29A
330
8E
100
AcDbEntity
  8
CSLAYER2
  6
CONTINUOUS
 62
     3
100
AcDbLine
 10
412.61337
 20
381.173241
 30
0.0
 11
412.504206
 21
381.389594
 31
0.0
  0
LINE
  5
29B
330
8E
100
AcDbEntity
  8
CSLAYER2
  6
CONTINUOUS
 62
     3
100
AcDbLine
 10
412.504206
 20
381.389594
 30
0.0
 11
412.397596
 21
381.60744
 31
0.0
  0
LINE
  5
29C
330
8E
100
AcDbEntity
  8
CSLAYER2
  6
CONTINUOUS
 62
     3
100
AcDbLine
 10
412.397596
 20
381.60744
 30
0.0
 11
412.293558
 21
381.826758
 31
0.0
  0
LINE
  5
29D
330
8E
100
AcDbEntity
  8
CSLAYER2
  6
CONTINUOUS
 62
     3
100
AcDbLine
 10
412.293558
 20
381.826758
 30
0.0
 11
412.192111
 21
382.04753
 31
0.0
  0
LINE
  5
29E
330
8E
100
AcDbEntity
  8
CSLAYER2
  6
CONTINUOUS
 62
     3
100
AcDbLine
 10
412.192111
 20
382.04753
 30
0.0
 11
412.093277
 21
382.269735
 31
0.0
  0
LINE
  5
29F
330
8E
100
AcDbEntity
  8
CSLAYER2
  6
CONTINUOUS
 62
     3
100
AcDbLine
 10
412.093277
 20
382.269735
 30
0.0
 11
411.997073
 21
382.493353
 31
0.0
  0
LINE
  5
2A0
330
8E
100
AcDbEntity
  8
CSLAYER2
  6
CONTINUOUS
 62
     3
100
AcDbLine
 10
411.997073
 20
382.493353
 30
0.0
 11
411.903521
 21
382.718365
 31
0.0
  0
LINE
  5
2A1
330
8E
100
AcDbEntity
  8
CSLAYER2
  6
CONTINUOUS
 62
     3
100
AcDbLine
 10
411.903521
 20
382.718365
 30
0.0
 11
411.812639
 21
382.944752
 31
0.0
  0
LINE
  5
2A2
330
8E
100
AcDbEntity
  8
CSLAYER2
  6
CONTINUOUS
 62
     3
100
AcDbLine
 10
411.812639
 20
382.944752
 30
0.0
 11
411.724446
 21
383.172494
 31
0.0
  0
LINE
  5
2A3
330
8E
100
AcDbEntity
  8
CSLAYER2
  6
CONTINUOUS
 62
     3
100
AcDbLine
 10
411.724446
 20
383.172494
 30
0.0
 11
411.638964
 21
383.401571
 31
0.0
  0
LINE
  5
2A4
330
8E
100
AcDbEntity
  8
CSLAYER2
  6
CONTINUOUS
 62
     3
100
AcDbLine
 10
411.638964
 20
383.401571
 30
0.0
 11
411.556211
 21
383.631964
 31
0.0
  0
LINE
  5
2A5
330
8E
100
AcDbEntity
  8
CSLAYER2
  6
CONTINUOUS
 62
     3
100
AcDbLine
 10
411.556211
 20
383.631964
 30
0.0
 11
411.476208
 21
383.863652
 31
0.0
  0
LINE
  5
2A6
330
8E
100
AcDbEntity
  8
CSLAYER2
  6
CONTINUOUS
 62
     3
100
AcDbLine
 10
411.476208
 20
383.863652
 30
0.0
 11
411.398972
 21
384.096616
 31
0.0
  0
LINE
  5
2A7
330
8E
100
AcDbEntity
  8
CSLAYER2
  6
CONTINUOUS
 62
     3
100
AcDbLine
 10
411.398972
 20
384.096616
 30
0.0
 11
411.324526
 21
384.330838
 31
0.0
  0
LINE
  5
2A8
330
8E
100
AcDbEntity
  8
CSLAYER2
  6
CONTINUOUS
 62
     3
100
AcDbLine
 10
411.324526
 20
384.330838
 30
0.0
 11
411.252887
 21
384.566296
 31
0.0
  0
LINE
  5
2A9
330
8E
100
AcDbEntity
  8
CSLAYER2
  6
CONTINUOUS
 62
     3
100
AcDbLine
 10
411.252887
 20
384.566296
 30
0.0
 11
411.184075
 21
384.802971
 31
0.0
  0
LINE
  5
2AA
330
8E
100
AcDbEntity
  8
CSLAYER2
  6
CONTINUOUS
 62
     3
100
AcDbLine
 10
411.184075
 20
384.802971
 30
0.0
 11
411.118111
 21
385.040845
 31
0.0
  0
LINE
  5
2AB
330
8E
100
AcDbEntity
  8
CSLAYER2
  6
CONTINUOUS
 62
     3
100
AcDbLine
 10
411.118111
 20
385.040845
 30
0.0
 11
411.055014
 21
385.279896
 31
0.0
  0
LINE
  5
2AC
330
8E
100
AcDbEntity
  8
CSLAYER2
  6
CONTINUOUS
 62
     3
100
AcDbLine
 10
411.055014
 20
385.279896
 30
0.0
 11
410.994803
 21
385.520105
 31
0.0
  0
LINE
  5
2AD
330
8E
100
AcDbEntity
  8
CSLAYER2
  6
CONTINUOUS
 62
     3
100
AcDbLine
 10
410.994803
 20
385.520105
 30
0.0
 11
410.937499
 21
385.761454
 31
0.0
  0
LINE
  5
2AE
330
8E
100
AcDbEntity
  8
CSLAYER2
  6
CONTINUOUS
 62
     3
100
AcDbLine
 10
410.937499
 20
385.761454
 30
0.0
 11
410.88312
 21
386.003922
 31
0.0
  0
LINE
  5
2AF
330
8E
100
AcDbEntity
  8
CSLAYER2
  6
CONTINUOUS
 62
     3
100
AcDbLine
 10
410.88312
 20
386.003922
 30
0.0
 11
410.831686
 21
386.247489
 31
0.0
  0
LINE
  5
2B0
330
8E
100
AcDbEntity
  8
CSLAYER2
  6
CONTINUOUS
 62
     3
100
AcDbLine
 10
410.831686
 20
386.247489
 30
0.0
 11
410.783218
 21
386.492136
 31
0.0
  0
LINE
  5
2B1
330
8E
100
AcDbEntity
  8
CSLAYER2
  6
CONTINUOUS
 62
     3
100
AcDbLine
 10
410.783218
 20
386.492136
 30
0.0
 11
410.737734
 21
386.737843
 31
0.0
  0
LINE
  5
2B2
330
8E
100
AcDbEntity
  8
CSLAYER2
  6
CONTINUOUS
 62
     3
100
AcDbLine
 10
410.737734
 20
386.737843
 30
0.0
 11
410.695255
 21
386.984591
 31
0.0
  0
LINE
  5
2B3
330
8E
100
AcDbEntity
  8
CSLAYER2
  6
CONTINUOUS
 62
     3
100
AcDbLine
 10
410.695255
 20
386.984591
 30
0.0
 11
410.655799
 21
387.23236
 31
0.0
  0
LINE
  5
2B4
330
8E
100
AcDbEntity
  8
CSLAYER2
  6
CONTINUOUS
 62
     3
100
AcDbLine
 10
410.655799
 20
387.23236
 30
0.0
 11
410.619387
 21
387.48113
 31
0.0
  0
LINE
  5
2B5
330
8E
100
AcDbEntity
  8
CSLAYER2
  6
CONTINUOUS
 62
     3
100
AcDbLine
 10
410.619387
 20
387.48113
 30
0.0
 11
410.586039
 21
387.730882
 31
0.0
  0
LINE
  5
2B6
330
8E
100
AcDbEntity
  8
CSLAYER2
  6
CONTINUOUS
 62
     3
100
AcDbLine
 10
410.586039
 20
387.730882
 30
0.0
 11
410.555773
 21
387.981596
 31
0.0
  0
LINE
  5
2B7
330
8E
100
AcDbEntity
  8
CSLAYER2
  6
CONTINUOUS
 62
     3
100
AcDbLine
 10
410.555773
 20
387.981596
 30
0.0
 11
410.52861
 21
388.233252
 31
0.0
  0
LINE
  5
2B8
330
8E
100
AcDbEntity
  8
CSLAYER2
  6
CONTINUOUS
 62
     3
100
AcDbLine
 10
410.52861
 20
388.233252
 30
0.0
 11
410.504568
 21
388.485831
 31
0.0
  0
LINE
  5
2B9
330
8E
100
AcDbEntity
  8
CSLAYER2
  6
CONTINUOUS
 62
     3
100
AcDbLine
 10
410.504568
 20
388.485831
 30
0.0
 11
410.483669
 21
388.739314
 31
0.0
  0
LINE
  5
2BA
330
8E
100
AcDbEntity
  8
CSLAYER2
  6
CONTINUOUS
 62
     3
100
AcDbLine
 10
410.483669
 20
388.739314
 30
0.0
 11
410.465931
 21
388.993679
 31
0.0
  0
LINE
  5
2BB
330
8E
100
AcDbEntity
  8
CSLAYER2
  6
CONTINUOUS
 62
     3
100
AcDbLine
 10
410.465931
 20
388.993679
 30
0.0
 11
410.451374
 21
389.248909
 31
0.0
  0
LINE
  5
2BC
330
8E
100
AcDbEntity
  8
CSLAYER2
  6
CONTINUOUS
 62
     3
100
AcDbLine
 10
410.451374
 20
389.248909
 30
0.0
 11
410.440018
 21
389.504983
 31
0.0
  0
LINE
  5
2BD
330
8E
100
AcDbEntity
  8
CSLAYER2
  6
CONTINUOUS
 62
     3
100
AcDbLine
 10
410.440018
 20
389.504983
 30
0.0
 11
410.431882
 21
389.761881
 31
0.0
  0
LINE
  5
2BE
330
8E
100
AcDbEntity
  8
CSLAYER2
  6
CONTINUOUS
 62
     3
100
AcDbLine
 10
410.431882
 20
389.761881
 30
0.0
 11
410.426986
 21
390.019585
 31
0.0
  0
LINE
  5
2BF
330
8E
100
AcDbEntity
  8
CSLAYER2
  6
CONTINUOUS
 62
     3
100
AcDbLine
 10
410.426986
 20
390.019585
 30
0.0
 11
410.42535
 21
390.278073
 31
0.0
  0
LINE
  5
2C0
330
8E
100
AcDbEntity
  8
CSLAYER2
  6
CONTINUOUS
 62
     3
100
AcDbLine
 10
410.42535
 20
390.278073
 30
0.0
 11
410.42535
 21
420.822655
 31
0.0
  0
ENDBLK
  5
90
330
8E
100
AcDbEntity
  8
0
100
AcDbBlockEnd
  0
BLOCK
  5
2C2
330
2C1
100
AcDbEntity
  8
0
100
AcDbBlockBegin
  2
BLKF015
 70
     0
 10
0.0
 20
0.0
 30
0.0
  3
BLKF015
  1

  0
LINE
  5
2C5
330
2C1
100
AcDbEntity
  8
CSLAYER2
  6
CONTINUOUS
 62
     3
100
AcDbLine
 10
1735.001359
 20
120.000164
 30
0.0
 11
1455.001039
 21
120.000164
 31
0.0
  0
LINE
  5
2C6
330
2C1
100
AcDbEntity
  8
CSLAYER2
  6
CONTINUOUS
 62
     3
100
AcDbLine
 10
1455.001039
 20
120.000164
 30
0.0
 11
1455.001039
 21
850.000703
 31
0.0
  0
LINE
  5
2C7
330
2C1
100
AcDbEntity
  8
CSLAYER2
  6
CONTINUOUS
 62
     3
100
AcDbLine
 10
1455.001039
 20
850.000703
 30
0.0
 11
1735.001359
 21
850.000703
 31
0.0
  0
LINE
  5
2C8
330
2C1
100
AcDbEntity
  8
CSLAYER2
  6
CONTINUOUS
 62
     3
100
AcDbLine
 10
1735.001359
 20
850.000703
 30
0.0
 11
1735.001359
 21
120.000164
 31
0.0
  0
LINE
  5
2C9
330
2C1
100
AcDbEntity
  8
CSLAYER2
  6
CONTINUOUS
 62
     3
100
AcDbLine
 10
1735.001359
 20
850.000703
 30
0.0
 11
1430.001342
 21
850.000703
 31
0.0
  0
LINE
  5
2CA
330
2C1
100
AcDbEntity
  8
CSLAYER2
  6
CONTINUOUS
 62
     3
100
AcDbLine
 10
1430.001342
 20
850.000703
 30
0.0
 11
1430.001342
 21
870.000874
 31
0.0
  0
LINE
  5
2CB
330
2C1
100
AcDbEntity
  8
CSLAYER2
  6
CONTINUOUS
 62
     3
100
AcDbLine
 10
1430.001342
 20
870.000874
 30
0.0
 11
1735.001359
 21
870.000874
 31
0.0
  0
LINE
  5
2CC
330
2C1
100
AcDbEntity
  8
CSLAYER2
  6
CONTINUOUS
 62
     3
100
AcDbLine
 10
1735.001359
 20
870.000874
 30
0.0
 11
1735.001359
 21
850.000703
 31
0.0
  0
LINE
  5
2CD
330
2C1
100
AcDbEntity
  8
CSLAYER2
  6
CONTINUOUS
 62
     3
100
AcDbLine
 10
1720.001403
 20
20.0
 30
0.0
 11
1465.001124
 21
20.0
 31
0.0
  0
LINE
  5
2CE
330
2C1
100
AcDbEntity
  8
CSLAYER2
  6
CONTINUOUS
 62
     3
100
AcDbLine
 10
1465.001124
 20
20.0
 30
0.0
 11
1465.001124
 21
120.000164
 31
0.0
  0
LINE
  5
2CF
330
2C1
100
AcDbEntity
  8
CSLAYER2
  6
CONTINUOUS
 62
     3
100
AcDbLine
 10
1465.001124
 20
120.000164
 30
0.0
 11
1720.001403
 21
120.000164
 31
0.0
  0
LINE
  5
2D0
330
2C1
100
AcDbEntity
  8
CSLAYER2
  6
CONTINUOUS
 62
     3
100
AcDbLine
 10
1720.001403
 20
120.000164
 30
0.0
 11
1720.001403
 21
20.0
 31
0.0
  0
LINE
  5
2D1
330
2C1
100
AcDbEntity
  8
CSLAYER2
  6
CONTINUOUS
 62
     3
100
AcDbLine
 10
1455.001039
 20
120.000164
 30
0.0
 11
1438.000859
 21
120.000164
 31
0.0
  0
LINE
  5
2D2
330
2C1
100
AcDbEntity
  8
CSLAYER2
  6
CONTINUOUS
 62
     3
100
AcDbLine
 10
1438.000859
 20
120.000164
 30
0.0
 11
1438.000859
 21
700.000458
 31
0.0
  0
LINE
  5
2D3
330
2C1
100
AcDbEntity
  8
CSLAYER2
  6
CONTINUOUS
 62
     3
100
AcDbLine
 10
1438.000859
 20
700.000458
 30
0.0
 11
1455.001039
 21
700.000458
 31
0.0
  0
LINE
  5
2D4
330
2C1
100
AcDbEntity
  8
CSLAYER2
  6
CONTINUOUS
 62
     3
100
AcDbLine
 10
1455.001039
 20
700.000458
 30
0.0
 11
1455.001039
 21
120.000164
 31
0.0
  0
ENDBLK
  5
2C3
330
2C1
100
AcDbEntity
  8
0
100
AcDbBlockEnd
  0
BLOCK
  5
2D6
330
2D5
100
AcDbEntity
  8
0
100
AcDbBlockBegin
  2
BLKF016
 70
     0
 10
0.0
 20
0.0
 30
0.0
  3
BLKF016
  1

  0
LINE
  5
2D9
330
2D5
100
AcDbEntity
  8
CSLAYER2
  6
CONTINUOUS
 62
     3
100
AcDbLine
 10
1120.000766
 20
1090.368791
 30
0.0
 11
20.0
 21
1090.368791
 31
0.0
  0
LINE
  5
2DA
330
2D5
100
AcDbEntity
  8
CSLAYER2
  6
CONTINUOUS
 62
     3
100
AcDbLine
 10
20.0
 20
1090.368791
 30
0.0
 11
20.0
 21
1395.368808
 31
0.0
  0
LINE
  5
2DB
330
2D5
100
AcDbEntity
  8
CSLAYER2
  6
CONTINUOUS
 62
     3
100
AcDbLine
 10
20.0
 20
1395.368808
 30
0.0
 11
1120.000766
 21
1395.368808
 31
0.0
  0
LINE
  5
2DC
330
2D5
100
AcDbEntity
  8
CSLAYER2
  6
CONTINUOUS
 62
     3
100
AcDbLine
 10
1120.000766
 20
1395.368808
 30
0.0
 11
1120.000766
 21
1090.368791
 31
0.0
  0
ENDBLK
  5
2D7
330
2D5
100
AcDbEntity
  8
0
100
AcDbBlockEnd
  0
ENDSEC
  0
SECTION
  2
ENTITIES
  0
INSERT
  5
91
330
1F
100
AcDbEntity
  8
0
100
AcDbBlockReference
  2
BLKF014
 10
0.0
 20
0.0
 30
0.0
  0
INSERT
  5
2C4
330
1F
100
AcDbEntity
  8
0
100
AcDbBlockReference
  2
BLKF015
 10
0.0
 20
0.0
 30
0.0
  0
INSERT
  5
2D8
330
1F
100
AcDbEntity
  8
0
100
AcDbBlockReference
  2
BLKF016
 10
0.0
 20
0.0
 30
0.0
  0
ENDSEC
  0
SECTION
  2
OBJECTS
  0
DICTIONARY
  5
C
330
0
100
AcDbDictionary
  3
ACAD_GROUP
350
D
  3
ACAD_LAYOUT
350
1A
  3
ACAD_MATERIAL
350
3B
  3
ACAD_MLEADERSTYLE
350
2DF
  3
ACAD_MLINESTYLE
350
17
  3
ACAD_PLOTSETTINGS
350
19
  3
ACAD_VISUALSTYLE
350
2A
  3
ACDBVARIABLEDICTIONARY
350
2DD
1001
ACAD
1000
TREAT_AS_HARD
1070
     0
  0
DICTIONARY
  5
D
102
{ACAD_REACTORS
330
C
102
}
330
C
100
AcDbDictionary
1001
ACAD
1000
TREAT_AS_HARD
1070
     0
  0
DICTIONARY
  5
1A
102
{ACAD_REACTORS
330
C
102
}
330
C
100
AcDbDictionary
1001
ACAD
1000
TREAT_AS_HARD
1070
     0
  0
DICTIONARY
  5
3B
102
{ACAD_REACTORS
330
C
102
}
330
C
100
AcDbDictionary
  3
BYBLOCK
350
3D
  3
BYLAYER
350
3C
  3
GLOBAL
350
3E
1001
ACAD
1000
TREAT_AS_HARD
1070
     0
  0
DICTIONARY
  5
2DF
102
{ACAD_REACTORS
330
C
102
}
330
C
100
AcDbDictionary
1001
ACAD
1000
TREAT_AS_HARD
1070
     0
  0
DICTIONARY
  5
17
102
{ACAD_REACTORS
330
C
102
}
330
C
100
AcDbDictionary
  3
STANDARD
350
18
1001
ACAD
1000
TREAT_AS_HARD
1070
     0
  0
DICTIONARY
  5
19
102
{ACAD_REACTORS
330
C
102
}
330
C
100
AcDbDictionary
1001
ACAD
1000
TREAT_AS_HARD
1070
     0
  0
DICTIONARY
  5
2A
102
{ACAD_REACTORS
330
C
102
}
330
C
100
AcDbDictionary
  3
2DWIREFRAME
350
2F
  3
3D_HIDDEN
350
31
  3
3DWIREFRAME
350
30
  3
BASIC
350
32
  3
BRIGHTEN
350
36
  3
COLORCHANGE
350
3A
  3
CONCEPTUAL
350
34
  3
DIM
350
35
  3
FACEPATTERN
350
39
  3
FLAT
350
2B
  3
FLATWITHEDGES
350
2C
  3
GOURAUD
350
2D
  3
GOURAUDWITHEDGES
350
2E
  3
LINEPATTERN
350
38
  3
REALISTIC
350
33
  3
THICKEN
350
37
1001
ACAD
1000
TREAT_AS_HARD
1070
     0
  0
DICTIONARY
  5
2DD
102
{ACAD_REACTORS
330
C
102
}
330
C
100
AcDbDictionary
  3
DIMASSOC
350
2E2
  3
HIDETEXT
350
2E3
  3
PSOLHEIGHT
350
2E1
  3
PSOLWIDTH
350
2E0
1001
ACAD
1000
TREAT_AS_HARD
1070
     0
  0
MATERIAL
  5
3D
102
{ACAD_REACTORS
330
3B
102
}
102
{ACAD_XDICTIONARY
360
2E6
102
}
330
3B
100
AcDbMaterial
  1
ByBlock
  0
MATERIAL
  5
3C
102
{ACAD_REACTORS
330
3B
102
}
102
{ACAD_XDICTIONARY
360
2E4
102
}
330
3B
100
AcDbMaterial
  1
ByLayer
  0
MATERIAL
  5
3E
102
{ACAD_REACTORS
330
3B
102
}
102
{ACAD_XDICTIONARY
360
2E8
102
}
330
3B
100
AcDbMaterial
  1
Global
  0
MLINESTYLE
  5
18
102
{ACAD_REACTORS
330
17
102
}
330
17
100
AcDbMlineStyle
  2
Standard
 70
     0
  3

 62
   256
 51
90.0
 52
90.0
 71
     2
 49
0.5
 62
   256
  6
BYLAYER
 49
-0.5
 62
   256
  6
BYLAYER
  0
ACAD_PROXY_OBJECT
  5
2F
102
{ACAD_REACTORS
330
2A
102
}
330
2A
100
AcDbZombieObject
 90
      499
 91
      501
 93
      436
310
42CC9915DA5C99599C985B595049028333333333333E3BF0000000000000FB0107901411070040501600405405064090741402480A0340
1001
ACAD
1000
AcDbSavedByObjectVersion
1070
     0
  0
ACAD_PROXY_OBJECT
  5
31
102
{ACAD_REACTORS
330
2A
102
}
330
2A
100
AcDbZombieObject
 90
      499
 91
      501
 93
      500
310
424CD108121A5919195B90640502408333333333333E3BF0000000000000FB01079024090700405020000000000001110200405405064090740C02480A0340
1001
ACAD
1000
AcDbSavedByObjectVersion
1070
     0
  0
ACAD_PROXY_OBJECT
  5
30
102
{ACAD_REACTORS
330
2A
102
}
330
2A
100
AcDbZombieObject
 90
      499
 91
      501
 93
      436
310
42CCD915DA5C99599C985B595059028333333333333E3BF0000000000000FB0107901411070040501600405405064090741402480A0340
1001
ACAD
1000
AcDbSavedByObjectVersion
1070
     0
  0
ACAD_PROXY_OBJECT
  5
32
102
{ACAD_REACTORS
330
2A
102
}
330
2A
100
AcDbZombieObject
 90
      499
 91
      501
 93
      388
310
4150985CDA58D07406404333333333333E3BF0000000000000FB0107A41107004050150841D405064090741402480A0350
1001
ACAD
1000
AcDbSavedByObjectVersion
1070
     0
  0
ACAD_PROXY_OBJECT
  5
36
102
{ACAD_REACTORS
330
2A
102
}
330
2A
100
AcDbZombieObject
 90
      499
 91
      501
 93
      428
310
42109C9A59DA1D195B90C409028333333333333E3BF0000000000000FB010790141107004050150841D405064090741402480A029950
1001
ACAD
1000
AcDbSavedByObjectVersion
1070
     0
  0
ACAD_PROXY_OBJECT
  5
3A
102
{ACAD_REACTORS
330
2A
102
}
330
2A
100
AcDbZombieObject
 90
      499
 91
      501
 93
      452
310
42D0DBDB1BDC90DA185B99D95104090240C333333333333E3BF0000000000000FB0108901411070040501508421405064090741402480A0350
1001
ACAD
1000
AcDbSavedByObjectVersion
1070
     0
  0
ACAD_PROXY_OBJECT
  5
34
102
{ACAD_REACTORS
330
2A
102
}
330
2A
100
AcDbZombieObject
 90
      499
 91
      501
 93
      500
310
4290DBDB98D95C1D1D585B10940D028333333333333E3BF0000000000000FB0107902409070040501000000000000111010841D405064090740C02480A0340
1001
ACAD
1000
AcDbSavedByObjectVersion
1070
     0
  0
ACAD_PROXY_OBJECT
  5
35
102
{ACAD_REACTORS
330
2A
102
}
330
2A
100
AcDbZombieObject
 90
      499
 91
      501
 93
      412
310
40D11A5B50B409028333333333333E3BF0000000000000FB010790141107004050150841D405064090741402480A02677FFFFFD0
1001
ACAD
1000
AcDbSavedByObjectVersion
1070
     0
  0
ACAD_PROXY_OBJECT
  5
39
102
{ACAD_REACTORS
330
2A
102
}
330
2A
100
AcDbZombieObject
 90
      499
 91
      501
 93
      444
310
42D19858D95C185D1D195C9B90F409028333333333333E3BF0000000000000FB010790141107004050150841D405064090741402480A0350
1001
ACAD
1000
AcDbSavedByObjectVersion
1070
     0
  0
ACAD_PROXY_OBJECT
  5
2B
102
{ACAD_REACTORS
330
2A
102
}
330
2A
100
AcDbZombieObject
 90
      499
 91
      501
 93
      388
310
41119B185D240901404333333333333E3BF0000000000000F9010740A41107004050150841D405064090741402480A1B50
1001
ACAD
1000
AcDbSavedByObjectVersion
1070
     0
  0
ACAD_PROXY_OBJECT
  5
2C
102
{ACAD_REACTORS
330
2A
102
}
330
2A
100
AcDbZombieObject
 90
      499
 91
      501
 93
      476
310
43519B185D15DA5D1A115919D95CD0140901404333333333333E3BF0000000000000F9010740901411070040501600405405064090741402480A1B50
1001
ACAD
1000
AcDbSavedByObjectVersion
1070
     0
  0
ACAD_PROXY_OBJECT
  5
2D
102
{ACAD_REACTORS
330
2A
102
}
330
2A
100
AcDbZombieObject
 90
      499
 91
      501
 93
      412
310
41D1DBDD5C985D5910240902404333333333333E3BF0000000000000F9010740A411070040501641D405064090741402480A1B50
1001
ACAD
1000
AcDbSavedByObjectVersion
1070
     0
  0
ACAD_PROXY_OBJECT
  5
2E
102
{ACAD_REACTORS
330
2A
102
}
330
2A
100
AcDbZombieObject
 90
      499
 91
      501
 93
      500
310
4411DBDD5C985D5915DA5D1A115919D95CD0340902404333333333333E3BF0000000000000F9010740901411070040501600405405064090741402480A1B50
1001
ACAD
1000
AcDbSavedByObjectVersion
1070
     0
  0
ACAD_PROXY_OBJECT
  5
38
102
{ACAD_REACTORS
330
2A
102
}
330
2A
100
AcDbZombieObject
 90
      499
 91
      501
 93
      444
310
42D31A5B995C185D1D195C9B90E409028333333333333E3BF0000000000000FB010790141107004050750841D405064090741402483A0350
1001
ACAD
1000
AcDbSavedByObjectVersion
1070
     0
  0
ACAD_PROXY_OBJECT
  5
33
102
{ACAD_REACTORS
330
2A
102
}
330
2A
100
AcDbZombieObject
 90
      499
 91
      501
 93
      420
310
425499585B1A5CDD1A58D08409028333333333333E3BF0000000000000FB01079019070040501508421405064090741402480A1B40
1001
ACAD
1000
AcDbSavedByObjectVersion
1070
     0
  0
ACAD_PROXY_OBJECT
  5
37
102
{ACAD_REACTORS
330
2A
102
}
330
2A
100
AcDbZombieObject
 90
      499
 91
      501
 93
      412
310
41D51A1A58DAD95B90D409028333333333333E3BF0000000000000FB010790141107004050150C41D405064090741402480A0350
1001
ACAD
1000
AcDbSavedByObjectVersion
1070
     0
  0
DICTIONARYVAR
  5
2E2
102
{ACAD_REACTORS
330
2DD
102
}
330
2DD
100
DictionaryVariables
280
     0
  1
2
  0
DICTIONARYVAR
  5
2E3
102
{ACAD_REACTORS
330
2DD
102
}
330
2DD
100
DictionaryVariables
280
     0
  1
1
  0
DICTIONARYVAR
  5
2E1
102
{ACAD_REACTORS
330
2DD
102
}
330
2DD
100
DictionaryVariables
280
     0
  1
80.000000
  0
DICTIONARYVAR
  5
2E0
102
{ACAD_REACTORS
330
2DD
102
}
330
2DD
100
DictionaryVariables
280
     0
  1
5.000000
  0
DICTIONARY
  5
2E6
330
3D
100
AcDbDictionary
  3
ACAD_XREC_ROUNDTRIP
360
2E7
1001
ACAD
1000
TREAT_AS_HARD
1070
     1
  0
DICTIONARY
  5
2E4
330
3C
100
AcDbDictionary
  3
ACAD_XREC_ROUNDTRIP
360
2E5
1001
ACAD
1000
TREAT_AS_HARD
1070
     1
  0
DICTIONARY
  5
2E8
330
3E
100
AcDbDictionary
  3
ACAD_XREC_ROUNDTRIP
360
2E9
1001
ACAD
1000
TREAT_AS_HARD
1070
     1
  0
XRECORD
  5
2E7
102
{ACAD_REACTORS
330
2E6
102
}
330
2E6
100
AcDbXrecord
102
MATERIAL
148
0.0
149
0.0
149
0.0
 93
        0
 94
      127
282
     0
 72
     1
 77
     1
171
     1
175
     1
179
     1
273
     0
  0
XRECORD
  5
2E5
102
{ACAD_REACTORS
330
2E4
102
}
330
2E4
100
AcDbXrecord
102
MATERIAL
148
0.0
149
0.0
149
0.0
 93
        0
 94
      127
282
     0
 72
     1
 77
     1
171
     1
175
     1
179
     1
273
     0
  0
XRECORD
  5
2E9
102
{ACAD_REACTORS
330
2E8
102
}
330
2E8
100
AcDbXrecord
102
MATERIAL
148
0.0
149
0.0
149
0.0
 93
        0
 94
      127
282
     0
 72
     1
 77
     1
171
     1
175
     1
179
     1
273
     0
  0
ENDSEC
  0
EOF
