  0
SECTION
  2
HEADER
  9
$ACADVER
  1
AC1018
  9
$ACADMAINTVER
 70
     0
  9
$DWGCODEPAGE
  3
ASCII
  9
$INSBASE
 10
0.0
 20
0.0
 30
0.0
  9
$EXTMIN
 10
1.000000000000000E+20
 20
1.000000000000000E+20
 30
1.000000000000000E+20
  9
$EXTMAX
 10
-1.000000000000000E+20
 20
-1.000000000000000E+20
 30
-1.000000000000000E+20
  9
$LIMMIN
 10
0.0
 20
0.0
  9
$LIMMAX
 10
12.0
 20
9.0
  9
$ORTHOMODE
 70
     0
  9
$REGENMODE
 70
     1
  9
$FILLMODE
 70
     1
  9
$QTEXTMODE
 70
     0
  9
$MIRRTEXT
 70
     1
  9
$LTSCALE
 40
1.0
  9
$ATTMODE
 70
     1
  9
$TEXTSIZE
 40
0.2
  9
$TRACEWID
 40
0.05
  9
$TEXTSTYLE
  7
Standard
  9
$CLAYER
  8
0
  9
$CELTYPE
  6
ByLayer
  9
$CECOLOR
 62
   256
  9
$CELTSCALE
 40
1.0
  9
$DISPSILH
 70
     0
  9
$DIMSCALE
 40
1.0
  9
$DIMASZ
 40
0.18
  9
$DIMEXO
 40
0.0625
  9
$DIMDLI
 40
0.38
  9
$DIMRND
 40
0.0
  9
$DIMDLE
 40
0.0
  9
$DIMEXE
 40
0.18
  9
$DIMTP
 40
0.0
  9
$DIMTM
 40
0.0
  9
$DIMTXT
 40
0.18
  9
$DIMCEN
 40
0.09
  9
$DIMTSZ
 40
0.0
  9
$DIMTOL
 70
     0
  9
$DIMLIM
 70
     0
  9
$DIMTIH
 70
     1
  9
$DIMTOH
 70
     1
  9
$DIMSE1
 70
     0
  9
$DIMSE2
 70
     0
  9
$DIMTAD
 70
     0
  9
$DIMZIN
 70
     0
  9
$DIMBLK
  1

  9
$DIMASO
 70
     1
  9
$DIMSHO
 70
     1
  9
$DIMPOST
  1

  9
$DIMAPOST
  1

  9
$DIMALT
 70
     0
  9
$DIMALTD
 70
     2
  9
$DIMALTF
 40
25.4
  9
$DIMLFAC
 40
1.0
  9
$DIMTOFL
 70
     0
  9
$DIMTVP
 40
0.0
  9
$DIMTIX
 70
     0
  9
$DIMSOXD
 70
     0
  9
$DIMSAH
 70
     0
  9
$DIMBLK1
  1

  9
$DIMBLK2
  1

  9
$DIMSTYLE
  2
Standard
  9
$DIMCLRD
 70
     0
  9
$DIMCLRE
 70
     0
  9
$DIMCLRT
 70
     0
  9
$DIMTFAC
 40
1.0
  9
$DIMGAP
 40
0.09
  9
$DIMJUST
 70
     0
  9
$DIMSD1
 70
     0
  9
$DIMSD2
 70
     0
  9
$DIMTOLJ
 70
     1
  9
$DIMTZIN
 70
     0
  9
$DIMALTZ
 70
     0
  9
$DIMALTTZ
 70
     0
  9
$DIMUPT
 70
     0
  9
$DIMDEC
 70
     4
  9
$DIMTDEC
 70
     4
  9
$DIMALTU
 70
     2
  9
$DIMALTTD
 70
     2
  9
$DIMTXSTY
  7
Standard
  9
$DIMAUNIT
 70
     0
  9
$DIMADEC
 70
     0
  9
$DIMALTRND
 40
0.0
  9
$DIMAZIN
 70
     0
  9
$DIMDSEP
 70
    46
  9
$DIMATFIT
 70
     3
  9
$DIMFRAC
 70
     0
  9
$DIMLDRBLK
  1

  9
$DIMLUNIT
 70
     2
  9
$DIMLWD
 70
    -2
  9
$DIMLWE
 70
    -2
  9
$DIMTMOVE
 70
     0
  9
$LUNITS
 70
     2
  9
$LUPREC
 70
     4
  9
$SKETCHINC
 40
0.1
  9
$FILLETRAD
 40
0.5
  9
$AUNITS
 70
     0
  9
$AUPREC
 70
     0
  9
$MENU
  1
.
  9
$ELEVATION
 40
0.0
  9
$PELEVATION
 40
0.0
  9
$THICKNESS
 40
0.0
  9
$LIMCHECK
 70
     0
  9
$CHAMFERA
 40
0.5
  9
$CHAMFERB
 40
0.5
  9
$CHAMFERC
 40
1.0
  9
$CHAMFERD
 40
0.0
  9
$SKPOLY
 70
     0
  9
$TDCREATE
 40
2457444.702541354
  9
$TDUCREATE
 40
2457444.327541354
  9
$TDUPDATE
 40
2457444.702541366
  9
$TDUUPDATE
 40
2457444.327541366
  9
$TDINDWG
 40
0.0000000116
  9
$TDUSRTIMER
 40
0.0000000116
  9
$USRTIMER
 70
     1
  9
$ANGBASE
 50
0.0
  9
$ANGDIR
 70
     0
  9
$PDMODE
 70
     0
  9
$PDSIZE
 40
0.0
  9
$PLINEWID
 40
0.0
  9
$SPLFRAME
 70
     0
  9
$SPLINETYPE
 70
     6
  9
$SPLINESEGS
 70
     8
  9
$HANDSEED
  5
1A1
  9
$SURFTAB1
 70
     6
  9
$SURFTAB2
 70
     6
  9
$SURFTYPE
 70
     6
  9
$SURFU
 70
     6
  9
$SURFV
 70
     6
  9
$UCSBASE
  2

  9
$UCSNAME
  2

  9
$UCSORG
 10
0.0
 20
0.0
 30
0.0
  9
$UCSXDIR
 10
1.0
 20
0.0
 30
0.0
  9
$UCSYDIR
 10
0.0
 20
1.0
 30
0.0
  9
$UCSORTHOREF
  2

  9
$UCSORTHOVIEW
 70
     0
  9
$UCSORGTOP
 10
0.0
 20
0.0
 30
0.0
  9
$UCSORGBOTTOM
 10
0.0
 20
0.0
 30
0.0
  9
$UCSORGLEFT
 10
0.0
 20
0.0
 30
0.0
  9
$UCSORGRIGHT
 10
0.0
 20
0.0
 30
0.0
  9
$UCSORGFRONT
 10
0.0
 20
0.0
 30
0.0
  9
$UCSORGBACK
 10
0.0
 20
0.0
 30
0.0
  9
$PUCSBASE
  2

  9
$PUCSNAME
  2

  9
$PUCSORG
 10
0.0
 20
0.0
 30
0.0
  9
$PUCSXDIR
 10
1.0
 20
0.0
 30
0.0
  9
$PUCSYDIR
 10
0.0
 20
1.0
 30
0.0
  9
$PUCSORTHOREF
  2

  9
$PUCSORTHOVIEW
 70
     0
  9
$PUCSORGTOP
 10
0.0
 20
0.0
 30
0.0
  9
$PUCSORGBOTTOM
 10
0.0
 20
0.0
 30
0.0
  9
$PUCSORGLEFT
 10
0.0
 20
0.0
 30
0.0
  9
$PUCSORGRIGHT
 10
0.0
 20
0.0
 30
0.0
  9
$PUCSORGFRONT
 10
0.0
 20
0.0
 30
0.0
  9
$PUCSORGBACK
 10
0.0
 20
0.0
 30
0.0
  9
$USERI1
 70
     0
  9
$USERI2
 70
     0
  9
$USERI3
 70
     0
  9
$USERI4
 70
     0
  9
$USERI5
 70
     0
  9
$USERR1
 40
0.0
  9
$USERR2
 40
0.0
  9
$USERR3
 40
0.0
  9
$USERR4
 40
0.0
  9
$USERR5
 40
0.0
  9
$WORLDVIEW
 70
     1
  9
$SHADEDGE
 70
     3
  9
$SHADEDIF
 70
    70
  9
$TILEMODE
 70
     1
  9
$MAXACTVP
 70
    64
  9
$PINSBASE
 10
0.0
 20
0.0
 30
0.0
  9
$PLIMCHECK
 70
     0
  9
$PEXTMIN
 10
1.000000000000000E+20
 20
1.000000000000000E+20
 30
1.000000000000000E+20
  9
$PEXTMAX
 10
-1.000000000000000E+20
 20
-1.000000000000000E+20
 30
-1.000000000000000E+20
  9
$PLIMMIN
 10
0.0
 20
0.0
  9
$PLIMMAX
 10
12.0
 20
9.0
  9
$UNITMODE
 70
     0
  9
$VISRETAIN
 70
     1
  9
$PLINEGEN
 70
     0
  9
$PSLTSCALE
 70
     1
  9
$TREEDEPTH
 70
  3020
  9
$CMLSTYLE
  2
Standard
  9
$CMLJUST
 70
     0
  9
$CMLSCALE
 40
1.0
  9
$PROXYGRAPHICS
 70
     1
  9
$MEASUREMENT
 70
     0
  9
$CELWEIGHT
370
    -1
  9
$ENDCAPS
280
     0
  9
$JOINSTYLE
280
     0
  9
$LWDISPLAY
290
     1
  9
$INSUNITS
 70
     1
  9
$HYPERLINKBASE
  1

  9
$STYLESHEET
  1

  9
$XEDIT
290
     1
  9
$CEPSNTYPE
380
     0
  9
$PSTYLEMODE
290
     1
  9
$FINGERPRINTGUID
  2
{6A0BB30F-7BF6-4CA5-9777-2AB13FB79F02}
  9
$VERSIONGUID
  2
{FAEB1C32-E019-11D5-929B-00C0DF256EC4}
  9
$EXTNAMES
290
     1
  9
$PSVPSCALE
 40
0.0
  9
$OLESTARTUP
290
     0
  9
$SORTENTS
280
   127
  9
$INDEXCTL
280
     0
  9
$HIDETEXT
280
     1
  9
$XCLIPFRAME
290
     0
  9
$HALOGAP
280
     0
  9
$OBSCOLOR
 70
   257
  9
$OBSLTYPE
280
     0
  9
$INTERSECTIONDISPLAY
280
     0
  9
$INTERSECTIONCOLOR
 70
   257
  9
$DIMASSOC
280
     2
  9
$PROJECTNAME
  1

  0
ENDSEC
  0
SECTION
  2
CLASSES
  0
CLASS
  1
ACDBDICTIONARYWDFLT
  2
AcDbDictionaryWithDefault
  3
ObjectDBX Classes
 90
        0
 91
        3
280
     0
281
     0
  0
CLASS
  1
VISUALSTYLE
  2
AcDbVisualStyle
  3
ObjectDBX Classes
 90
     4095
 91
        3
280
     0
281
     0
  0
ENDSEC
  0
SECTION
  2
TABLES
  0
TABLE
  2
VPORT
  5
8
330
0
100
AcDbSymbolTable
 70
     1
  0
VPORT
  5
29
330
8
100
AcDbSymbolTableRecord
100
AcDbViewportTableRecord
  2
*Active
 70
     0
 10
0.0
 20
0.0
 11
1.0
 21
1.0
 12
0.0
 22
0.0
 13
0.0
 23
0.0
 14
0.5
 24
0.5
 15
0.5
 25
0.5
 16
0.0
 26
0.0
 36
1.0
 17
-463.7400444446936
 27
577.4163848701643
 37
0.0
 40
1844.511275516125
 41
1.41112135531921
 42
50.0
 43
0.0
 44
0.0
 50
0.0
 51
0.0
 71
     0
 72
   100
 73
     1
 74
     3
 75
     0
 76
     0
 77
     0
 78
     0
281
     0
 65
     1
110
0.0
120
0.0
130
0.0
111
1.0
121
0.0
131
0.0
112
0.0
122
1.0
132
0.0
 79
     0
146
0.0
  0
ENDTAB
  0
TABLE
  2
LTYPE
  5
5
330
0
100
AcDbSymbolTable
 70
    10
  0
LTYPE
  5
14
330
5
100
AcDbSymbolTableRecord
100
AcDbLinetypeTableRecord
  2
ByBlock
 70
     0
  3

 72
    65
 73
     0
 40
0.0
  0
LTYPE
  5
15
330
5
100
AcDbSymbolTableRecord
100
AcDbLinetypeTableRecord
  2
ByLayer
 70
     0
  3

 72
    65
 73
     0
 40
0.0
  0
LTYPE
  5
16
330
5
100
AcDbSymbolTableRecord
100
AcDbLinetypeTableRecord
  2
Continuous
 70
     0
  3
Solid line
 72
    65
 73
     0
 40
0.0
  0
LTYPE
  5
6D
330
5
100
AcDbSymbolTableRecord
100
AcDbLinetypeTableRecord
  2
AI-Linetype-1
 70
     0
  3
Adobe Illustrator Linetype No. 1
 72
    65
 73
     2
 40
21.16668062491662
 49
10.58334031245831
 74
     0
 49
-10.58334031245831
 74
     0
  0
LTYPE
  5
6F
330
5
100
AcDbSymbolTableRecord
100
AcDbLinetypeTableRecord
  2
AI-Linetype-2
 70
     0
  3
Adobe Illustrator Linetype No. 2
 72
    65
 73
     2
 40
21.16668062491662
 49
10.58334031245831
 74
     0
 49
-10.58334031245831
 74
     0
  0
LTYPE
  5
71
330
5
100
AcDbSymbolTableRecord
100
AcDbLinetypeTableRecord
  2
AI-Linetype-3
 70
     0
  3
Adobe Illustrator Linetype No. 3
 72
    65
 73
     2
 40
21.16668062491662
 49
10.58334031245831
 74
     0
 49
-10.58334031245831
 74
     0
  0
LTYPE
  5
73
330
5
100
AcDbSymbolTableRecord
100
AcDbLinetypeTableRecord
  2
AI-Linetype-4
 70
     0
  3
Adobe Illustrator Linetype No. 4
 72
    65
 73
     2
 40
21.16668062491662
 49
10.58334031245831
 74
     0
 49
-10.58334031245831
 74
     0
  0
LTYPE
  5
193
330
5
100
AcDbSymbolTableRecord
100
AcDbLinetypeTableRecord
  2
AI-Linetype-5
 70
     0
  3
Adobe Illustrator Linetype No. 5
 72
    65
 73
     2
 40
28.22224083322215
 49
10.58334031245831
 74
     0
 49
-17.63890052076384
 74
     0
  0
LTYPE
  5
195
330
5
100
AcDbSymbolTableRecord
100
AcDbLinetypeTableRecord
  2
AI-Linetype-6
 70
     0
  3
Adobe Illustrator Linetype No. 6
 72
    65
 73
     2
 40
28.22224083322215
 49
10.58334031245831
 74
     0
 49
-17.63890052076384
 74
     0
  0
LTYPE
  5
19B
330
5
100
AcDbSymbolTableRecord
100
AcDbLinetypeTableRecord
  2
AI-Linetype-7
 70
     0
  3
Adobe Illustrator Linetype No. 7
 72
    65
 73
     2
 40
21.16668062491662
 49
10.58334031245831
 74
     0
 49
-10.58334031245831
 74
     0
  0
LTYPE
  5
19D
330
5
100
AcDbSymbolTableRecord
100
AcDbLinetypeTableRecord
  2
AI-Linetype-8
 70
     0
  3
Adobe Illustrator Linetype No. 8
 72
    65
 73
     2
 40
21.16668062491662
 49
10.58334031245831
 74
     0
 49
-10.58334031245831
 74
     0
  0
LTYPE
  5
19F
330
5
100
AcDbSymbolTableRecord
100
AcDbLinetypeTableRecord
  2
AI-Linetype-9
 70
     0
  3
Adobe Illustrator Linetype No. 9
 72
    65
 73
     2
 40
21.16668062491662
 49
10.58334031245831
 74
     0
 49
-10.58334031245831
 74
     0
  0
ENDTAB
  0
TABLE
  2
LAYER
  5
2
330
0
100
AcDbSymbolTable
 70
     3
  0
LAYER
  5
10
330
2
100
AcDbSymbolTableRecord
100
AcDbLayerTableRecord
  2
0
 70
     0
 62
     7
  6
Continuous
370
    -3
390
F
  0
LAYER
  5
3B
330
2
100
AcDbSymbolTableRecord
100
AcDbLayerTableRecord
  2
\U+30EC\U+30A4\U+30E4\U+30FC 1
 70
     0
 62
     7
  6
Continuous
370
    -3
390
F
  0
LAYER
  5
3C
330
2
100
AcDbSymbolTableRecord
100
AcDbLayerTableRecord
  2
\U+30EC\U+30A4\U+30E4\U+30FC 2
 70
     0
 62
     7
  6
Continuous
370
    -3
390
F
  0
ENDTAB
  0
TABLE
  2
STYLE
  5
3
330
0
100
AcDbSymbolTable
 70
     1
  0
STYLE
  5
11
330
3
100
AcDbSymbolTableRecord
100
AcDbTextStyleTableRecord
  2
Standard
 70
     0
 40
0.0
 41
1.0
 50
0.0
 71
     0
 42
0.2
  3
txt
  4

  0
ENDTAB
  0
TABLE
  2
VIEW
  5
6
330
0
100
AcDbSymbolTable
 70
     0
  0
ENDTAB
  0
TABLE
  2
UCS
  5
7
330
0
100
AcDbSymbolTable
 70
     0
  0
ENDTAB
  0
TABLE
  2
APPID
  5
9
330
0
100
AcDbSymbolTable
 70
     1
  0
APPID
  5
12
330
9
100
AcDbSymbolTableRecord
100
AcDbRegAppTableRecord
  2
ACAD
 70
     0
  0
ENDTAB
  0
TABLE
  2
DIMSTYLE
  5
A
330
0
100
AcDbSymbolTable
 70
     1
100
AcDbDimStyleTable
  0
DIMSTYLE
105
27
330
A
100
AcDbSymbolTableRecord
100
AcDbDimStyleTableRecord
  2
Standard
 70
     0
340
11
  0
ENDTAB
  0
TABLE
  2
BLOCK_RECORD
  5
1
330
0
100
AcDbSymbolTable
 70
    25
  0
BLOCK_RECORD
  5
1F
330
1
100
AcDbSymbolTableRecord
100
AcDbBlockTableRecord
  2
*Model_Space
340
22
  0
BLOCK_RECORD
  5
1B
330
1
100
AcDbSymbolTableRecord
100
AcDbBlockTableRecord
  2
*Paper_Space
340
1E
  0
BLOCK_RECORD
  5
23
330
1
100
AcDbSymbolTableRecord
100
AcDbBlockTableRecord
  2
*Paper_Space0
340
26
  0
BLOCK_RECORD
  5
3D
330
1
100
AcDbSymbolTableRecord
100
AcDbBlockTableRecord
  2
block 2
340
0
102
{BLKREFS
331
3E
102
}
  0
BLOCK_RECORD
  5
42
330
1
100
AcDbSymbolTableRecord
100
AcDbBlockTableRecord
  2
block 3
340
0
102
{BLKREFS
331
43
102
}
  0
BLOCK_RECORD
  5
58
330
1
100
AcDbSymbolTableRecord
100
AcDbBlockTableRecord
  2
block 4
340
0
102
{BLKREFS
331
59
102
}
  0
BLOCK_RECORD
  5
68
330
1
100
AcDbSymbolTableRecord
100
AcDbBlockTableRecord
  2
block 5
340
0
102
{BLKREFS
331
69
102
}
  0
BLOCK_RECORD
  5
74
330
1
100
AcDbSymbolTableRecord
100
AcDbBlockTableRecord
  2
block 6
340
0
102
{BLKREFS
331
75
102
}
  0
BLOCK_RECORD
  5
78
330
1
100
AcDbSymbolTableRecord
100
AcDbBlockTableRecord
  2
block 7
340
0
102
{BLKREFS
331
79
102
}
  0
BLOCK_RECORD
  5
7E
330
1
100
AcDbSymbolTableRecord
100
AcDbBlockTableRecord
  2
block 8
340
0
102
{BLKREFS
331
7F
102
}
  0
BLOCK_RECORD
  5
94
330
1
100
AcDbSymbolTableRecord
100
AcDbBlockTableRecord
  2
block 9
340
0
102
{BLKREFS
331
95
102
}
  0
BLOCK_RECORD
  5
A1
330
1
100
AcDbSymbolTableRecord
100
AcDbBlockTableRecord
  2
block 10
340
0
102
{BLKREFS
331
A2
102
}
  0
BLOCK_RECORD
  5
A9
330
1
100
AcDbSymbolTableRecord
100
AcDbBlockTableRecord
  2
block 11
340
0
102
{BLKREFS
331
AA
102
}
  0
BLOCK_RECORD
  5
B2
330
1
100
AcDbSymbolTableRecord
100
AcDbBlockTableRecord
  2
block 12
340
0
102
{BLKREFS
331
B3
102
}
  0
BLOCK_RECORD
  5
CF
330
1
100
AcDbSymbolTableRecord
100
AcDbBlockTableRecord
  2
block 13
340
0
102
{BLKREFS
331
D0
102
}
  0
BLOCK_RECORD
  5
D7
330
1
100
AcDbSymbolTableRecord
100
AcDbBlockTableRecord
  2
block 14
340
0
102
{BLKREFS
331
D8
102
}
  0
BLOCK_RECORD
  5
E0
330
1
100
AcDbSymbolTableRecord
100
AcDbBlockTableRecord
  2
block 15
340
0
102
{BLKREFS
331
E1
102
}
  0
BLOCK_RECORD
  5
FD
330
1
100
AcDbSymbolTableRecord
100
AcDbBlockTableRecord
  2
block 16
340
0
102
{BLKREFS
331
FE
102
}
  0
BLOCK_RECORD
  5
101
330
1
100
AcDbSymbolTableRecord
100
AcDbBlockTableRecord
  2
block 17
340
0
102
{BLKREFS
331
102
102
}
  0
BLOCK_RECORD
  5
10A
330
1
100
AcDbSymbolTableRecord
100
AcDbBlockTableRecord
  2
block 18
340
0
102
{BLKREFS
331
10B
102
}
  0
BLOCK_RECORD
  5
117
330
1
100
AcDbSymbolTableRecord
100
AcDbBlockTableRecord
  2
block 19
340
0
102
{BLKREFS
331
118
102
}
  0
BLOCK_RECORD
  5
123
330
1
100
AcDbSymbolTableRecord
100
AcDbBlockTableRecord
  2
block 20
340
0
102
{BLKREFS
331
124
102
}
  0
BLOCK_RECORD
  5
12C
330
1
100
AcDbSymbolTableRecord
100
AcDbBlockTableRecord
  2
block 21
340
0
102
{BLKREFS
331
12D
102
}
  0
BLOCK_RECORD
  5
139
330
1
100
AcDbSymbolTableRecord
100
AcDbBlockTableRecord
  2
block 22
340
0
102
{BLKREFS
331
13A
102
}
  0
BLOCK_RECORD
  5
163
330
1
100
AcDbSymbolTableRecord
100
AcDbBlockTableRecord
  2
block 23
340
0
102
{BLKREFS
331
164
102
}
  0
BLOCK_RECORD
  5
18E
330
1
100
AcDbSymbolTableRecord
100
AcDbBlockTableRecord
  2
block 24
340
0
102
{BLKREFS
331
18F
102
}
  0
BLOCK_RECORD
  5
196
330
1
100
AcDbSymbolTableRecord
100
AcDbBlockTableRecord
  2
block 25
340
0
102
{BLKREFS
331
197
102
}
  0
ENDTAB
  0
ENDSEC
  0
SECTION
  2
BLOCKS
  0
BLOCK
  5
20
330
1F
100
AcDbEntity
  8
0
100
AcDbBlockBegin
  2
*Model_Space
 70
     0
 71
     0
 10
0.0
 20
0.0
 30
0.0
  3
*Model_Space
  1

  0
ENDBLK
  5
21
330
1F
100
AcDbEntity
  8
0
100
AcDbBlockEnd
  0
BLOCK
  5
1C
330
1B
100
AcDbEntity
 67
     1
  8
0
100
AcDbBlockBegin
  2
*Paper_Space
 70
     0
 71
     0
 10
0.0
 20
0.0
 30
0.0
  3
*Paper_Space
  1

  0
ENDBLK
  5
1D
330
1B
100
AcDbEntity
 67
     1
  8
0
100
AcDbBlockEnd
  0
BLOCK
  5
24
330
23
100
AcDbEntity
  8
0
100
AcDbBlockBegin
  2
*Paper_Space0
 70
     0
 71
     0
 10
0.0
 20
0.0
 30
0.0
  3
*Paper_Space0
  1

  0
ENDBLK
  5
25
330
23
100
AcDbEntity
  8
0
100
AcDbBlockEnd
  0
BLOCK
  5
3F
330
3D
100
AcDbEntity
  8
0
100
AcDbBlockBegin
  2
block 2
 70
     0
 71
     0
 10
0.0
 20
0.0
 30
0.0
  3
block 2
  1

  0
SPLINE
  5
41
330
3D
100
AcDbEntity
  8
\U+30EC\U+30A4\U+30E4\U+30FC 2
 62
   250
420
  2234132
370
    18
100
AcDbSpline
210
0.0
220
0.0
230
1.0
 70
    11
 71
     3
 72
    23
 73
    19
 74
     0
 42
0.0000000001
 43
0.0000000001
 40
0.0
 40
0.0
 40
0.0
 40
0.0
 40
1.0
 40
1.0
 40
1.0
 40
2.0
 40
2.0
 40
2.0
 40
3.0
 40
3.0
 40
3.0
 40
4.0
 40
4.0
 40
4.0
 40
5.0
 40
5.0
 40
5.0
 40
6.0
 40
6.0
 40
6.0
 40
6.0
 10
-328.9129569714368
 20
611.627842028159
 30
0.0
 10
-328.1391880149986
 20
605.3252079348559
 30
0.0
 10
-331.5184844057832
 20
600.5072387203465
 30
0.0
 10
-338.4669020738161
 20
599.6540602605872
 30
0.0
 10
-392.7947156777688
 20
592.983489726734
 30
0.0
 10
-632.7915943199813
 20
563.515157034457
 30
0.0
 10
-640.9568205161263
 20
562.5129780966661
 30
0.0
 10
-650.1669448622611
 20
561.3817802478393
 30
0.0
 10
-652.1447754851068
 20
571.2581865003639
 30
0.0
 10
-652.1447754851068
 20
571.2581865003639
 30
0.0
 10
-652.1447754851068
 20
571.2581865003639
 30
0.0
 10
-654.8192048746125
 20
582.1353936515764
 30
0.0
 10
-643.7635416595376
 20
583.4925899133253
 30
0.0
 10
-637.0803965188678
 20
584.3133844541596
 30
0.0
 10
-392.1601286707523
 20
614.3856427834073
 30
0.0
 10
-339.9231448961066
 20
620.7995535342924
 30
0.0
 10
-333.6778716804736
 20
621.5664322952147
 30
0.0
 10
-329.6874149474266
 20
617.9306483763498
 30
0.0
 10
-328.9129569714368
 20
611.627842028159
 30
0.0
  0
INSERT
  5
43
330
3D
100
AcDbEntity
  8
\U+30EC\U+30A4\U+30E4\U+30FC 2
100
AcDbBlockReference
  2
block 3
 10
0.0
 20
0.0
 30
0.0
  0
SPLINE
  5
54
330
3D
100
AcDbEntity
  8
\U+30EC\U+30A4\U+30E4\U+30FC 2
 62
   250
420
  2234132
370
    18
100
AcDbSpline
210
0.0
220
0.0
230
1.0
 70
     8
 71
     3
 72
    23
 73
    19
 74
     0
 42
0.0000000001
 43
0.0000000001
 40
0.0
 40
0.0
 40
0.0
 40
0.0
 40
1.0
 40
1.0
 40
1.0
 40
2.0
 40
2.0
 40
2.0
 40
3.0
 40
3.0
 40
3.0
 40
4.0
 40
4.0
 40
4.0
 40
5.0
 40
5.0
 40
5.0
 40
6.0
 40
6.0
 40
6.0
 40
6.0
 10
-724.139050391887
 20
625.0868054391879
 30
0.0
 10
-723.1396275323024
 20
619.0895792621282
 30
0.0
 10
-721.081526131696
 20
605.0371977622904
 30
0.0
 10
-715.848767147128
 20
593.2191344133786
 30
0.0
 10
-710.61600816256
 20
581.4010710644668
 30
0.0
 10
-705.9120716838391
 20
575.6978839810491
 30
0.0
 10
-694.270397340135
 20
566.7020447154596
 30
0.0
 10
-682.6287229964308
 20
557.70620544987
 30
0.0
 10
-667.5181797202351
 20
554.5312033561324
 30
0.0
 10
-650.9965244023782
 20
553.4728693248867
 30
0.0
 10
-634.4748690845214
 20
552.4145352936408
 30
0.0
 10
-606.7817952669221
 20
555.0603703717554
 30
0.0
 10
-595.7867657723874
 20
555.9423153977935
 30
0.0
 10
-584.7917362778527
 20
556.8242604238318
 30
0.0
 10
-554.5117385538
 20
560.4695183615311
 30
0.0
 10
-554.5117385538
 20
560.4695183615311
 30
0.0
 10
-554.5117385538
 20
560.4695183615311
 30
0.0
 10
-556.2167174342152
 20
572.9343988145001
 30
0.0
 10
-556.2167174342152
 20
572.9343988145001
 30
0.0
  0
SPLINE
  5
55
330
3D
100
AcDbEntity
  8
\U+30EC\U+30A4\U+30E4\U+30FC 2
 62
   250
420
  2234132
370
    18
100
AcDbSpline
210
0.0
220
0.0
230
1.0
 70
     8
 71
     3
 72
    17
 73
    13
 74
     0
 42
0.0000000001
 43
0.0000000001
 40
0.0
 40
0.0
 40
0.0
 40
0.0
 40
1.0
 40
1.0
 40
1.0
 40
2.0
 40
2.0
 40
2.0
 40
3.0
 40
3.0
 40
3.0
 40
4.0
 40
4.0
 40
4.0
 40
4.0
 10
-652.4076364440393
 20
573.1107878197078
 30
0.0
 10
-652.4076364440393
 20
573.1107878197078
 30
0.0
 10
-665.4604228294046
 20
573.8165160954262
 30
0.0
 10
-674.2798730897865
 20
577.7558131267675
 30
0.0
 10
-683.0993233501684
 20
581.6951101581088
 30
0.0
 10
-691.6834734336816
 20
588.7506703664144
 30
0.0
 10
-695.2112535378343
 20
595.1006745538893
 30
0.0
 10
-698.7390336419871
 20
601.4506787413643
 30
0.0
 10
-702.5610250946698
 20
613.5040422671449
 30
0.0
 10
-703.5604479542545
 20
620.5006913037893
 30
0.0
 10
-704.5598708138392
 20
627.4973403404337
 30
0.0
 10
-706.9707502248608
 20
638.8449755904958
 30
0.0
 10
-707.2646170636149
 20
646.3122249808778
 30
0.0
  0
SPLINE
  5
56
330
3D
100
AcDbEntity
  8
\U+30EC\U+30A4\U+30E4\U+30FC 2
 62
   250
420
  2234132
370
    18
100
AcDbSpline
210
0.0
220
0.0
230
1.0
 70
     8
 71
     3
 72
    23
 73
    19
 74
     0
 42
0.0000000001
 43
0.0000000001
 40
0.0
 40
0.0
 40
0.0
 40
0.0
 40
1.0
 40
1.0
 40
1.0
 40
2.0
 40
2.0
 40
2.0
 40
3.0
 40
3.0
 40
3.0
 40
4.0
 40
4.0
 40
4.0
 40
5.0
 40
5.0
 40
5.0
 40
6.0
 40
6.0
 40
6.0
 40
6.0
 10
-700.9735240478011
 20
658.7771054338468
 30
0.0
 10
-700.9735240478011
 20
658.7771054338468
 30
0.0
 10
-699.5620674963642
 20
632.2011045642666
 30
0.0
 10
-694.1529195065885
 20
622.7937483714886
 30
0.0
 10
-688.7437715168129
 20
613.3863921787105
 30
0.0
 10
-676.2787188089559
 20
611.2697241162189
 30
0.0
 10
-662.4028985692136
 20
607.741944012066
 30
0.0
 10
-648.5270783294712
 20
604.2141639079133
 30
0.0
 10
-635.3568141105595
 20
604.2141639079133
 30
0.0
 10
-627.5956978814235
 20
604.9197199287438
 30
0.0
 10
-619.8345816522874
 20
605.6252759495744
 30
0.0
 10
-609.2512413398291
 20
611.0344239393501
 30
0.0
 10
-608.5456853189985
 20
627.7326405173025
 30
0.0
 10
-607.840129298168
 20
644.4308570952549
 30
0.0
 10
-612.0734654231513
 20
684.4120778508398
 30
0.0
 10
-618.6587697874951
 20
726.0398830798424
 30
0.0
 10
-625.2440741518388
 20
767.6676883088451
 30
0.0
 10
-658.8744294455092
 20
921.2432561632612
 30
0.0
 10
-673.220850038989
 20
936.2950605226838
 30
0.0
  0
SPLINE
  5
57
330
3D
100
AcDbEntity
  8
\U+30EC\U+30A4\U+30E4\U+30FC 2
 62
   250
420
  2234132
370
    18
100
AcDbSpline
210
0.0
220
0.0
230
1.0
 70
     8
 71
     3
 72
    35
 73
    31
 74
     0
 42
0.0000000001
 43
0.0000000001
 40
0.0
 40
0.0
 40
0.0
 40
0.0
 40
1.0
 40
1.0
 40
1.0
 40
2.0
 40
2.0
 40
2.0
 40
3.0
 40
3.0
 40
3.0
 40
4.0
 40
4.0
 40
4.0
 40
5.0
 40
5.0
 40
5.0
 40
6.0
 40
6.0
 40
6.0
 40
7.0
 40
7.0
 40
7.0
 40
8.0
 40
8.0
 40
8.0
 40
9.0
 40
9.0
 40
9.0
 40
10.0
 40
10.0
 40
10.0
 40
10.0
 10
-908.1813402688374
 20
619.77618724529
 30
0.0
 10
-908.1813402688374
 20
619.77618724529
 30
0.0
 10
-908.1813402688374
 20
561.7049304175362
 30
0.0
 10
-908.1813402688374
 20
561.7049304175362
 30
0.0
 10
-908.1813402688374
 20
561.7049304175362
 30
0.0
 10
-1240.966070355559
 20
561.7049304175362
 30
0.0
 10
-1240.966070355559
 20
561.7049304175362
 30
0.0
 10
-1240.966070355559
 20
561.7049304175362
 30
0.0
 10
-1240.966070355559
 20
601.0391618141758
 30
0.0
 10
-1240.966070355559
 20
601.0391618141758
 30
0.0
 10
-1240.966070355559
 20
609.1530560537271
 30
0.0
 10
-1247.07388417065
 20
608.9177558768583
 30
0.0
 10
-1251.071920118764
 20
608.9177558768583
 30
0.0
 10
-1255.069956066879
 20
608.9177558768583
 30
0.0
 10
-1275.296125003872
 20
608.9177558768583
 30
0.0
 10
-1283.762797253838
 20
608.9177558768583
 30
0.0
 10
-1292.229469503805
 20
608.9177558768583
 30
0.0
 10
-1295.051349077351
 20
623.9697324911688
 30
0.0
 10
-1296.697761295881
 20
628.438196538133
 30
0.0
 10
-1298.344173514411
 20
632.9066605850973
 30
0.0
 10
-1303.517676817542
 20
690.2918261943529
 30
0.0
 10
-1311.514093223547
 20
709.3418387567779
 30
0.0
 10
-1319.510509629552
 20
728.3918513192028
 30
0.0
 10
-1326.330769660989
 20
746.2657075070597
 30
0.0
 10
-1330.564105785972
 20
757.7899040172173
 30
0.0
 10
-1334.797441910956
 20
769.314100527375
 30
0.0
 10
-1337.619321484502
 20
809.0605378707547
 30
0.0
 10
-1322.332389203099
 20
809.0605378707547
 30
0.0
 10
-1322.332389203099
 20
809.0605378707547
 30
0.0
 10
-1297.050883816072
 20
808.3549818499242
 30
0.0
 10
-1297.050883816072
 20
808.3549818499242
 30
0.0
  0
INSERT
  5
59
330
3D
100
AcDbEntity
  8
\U+30EC\U+30A4\U+30E4\U+30FC 2
100
AcDbBlockReference
  2
block 4
 10
0.0
 20
0.0
 30
0.0
  0
SPLINE
  5
65
330
3D
100
AcDbEntity
  8
\U+30EC\U+30A4\U+30E4\U+30FC 2
 62
   250
420
  2234132
370
    18
100
AcDbSpline
210
0.0
220
0.0
230
1.0
 70
     8
 71
     3
 72
    23
 73
    19
 74
     0
 42
0.0000000001
 43
0.0000000001
 40
0.0
 40
0.0
 40
0.0
 40
0.0
 40
1.0
 40
1.0
 40
1.0
 40
2.0
 40
2.0
 40
2.0
 40
3.0
 40
3.0
 40
3.0
 40
4.0
 40
4.0
 40
4.0
 40
5.0
 40
5.0
 40
5.0
 40
6.0
 40
6.0
 40
6.0
 40
6.0
 10
-1241.664391671098
 20
566.5843946270252
 30
0.0
 10
-1241.664391671098
 20
566.5843946270252
 30
0.0
 10
-1326.095813993896
 20
555.5306262157171
 30
0.0
 10
-1331.975562337409
 20
554.119514174056
 30
0.0
 10
-1337.855310680922
 20
552.708402132395
 30
0.0
 10
-1345.851727086927
 20
559.0585785747578
 30
0.0
 10
-1347.968395149419
 20
566.5843946270252
 30
0.0
 10
-1350.085063211911
 20
574.1102106792924
 30
0.0
 10
-1344.205314868397
 20
582.577055184147
 30
0.0
 10
-1340.207278920283
 20
583.2826112049776
 30
0.0
 10
-1336.209242972168
 20
583.9881672258081
 30
0.0
 10
-1295.756905098182
 20
592.2195392989059
 30
0.0
 10
-1292.464425170898
 20
593.630651340567
 30
0.0
 10
-1289.171945243614
 20
595.0417633822282
 30
0.0
 10
-1287.290577357991
 20
600.6862115488726
 30
0.0
 10
-1287.290577357991
 20
600.6862115488726
 30
0.0
 10
-1287.290577357991
 20
600.6862115488726
 30
0.0
 10
-1240.958835650268
 20
602.5677516893834
 30
0.0
 10
-1240.958835650268
 20
602.5677516893834
 30
0.0
  0
SPLINE
  5
66
330
3D
100
AcDbEntity
  8
\U+30EC\U+30A4\U+30E4\U+30FC 2
 62
   250
420
  2234132
370
    18
100
AcDbSpline
210
0.0
220
0.0
230
1.0
 70
     8
 71
     3
 72
    32
 73
    28
 74
     0
 42
0.0000000001
 43
0.0000000001
 40
0.0
 40
0.0
 40
0.0
 40
0.0
 40
1.0
 40
1.0
 40
1.0
 40
2.0
 40
2.0
 40
2.0
 40
3.0
 40
3.0
 40
3.0
 40
4.0
 40
4.0
 40
4.0
 40
5.0
 40
5.0
 40
5.0
 40
6.0
 40
6.0
 40
6.0
 40
7.0
 40
7.0
 40
7.0
 40
8.0
 40
8.0
 40
8.0
 40
9.0
 40
9.0
 40
9.0
 40
9.0
 10
-1385.892031269061
 20
1273.610438670901
 30
0.0
 10
-1385.892031269061
 20
1273.610438670901
 30
0.0
 10
-1406.398631163552
 20
1272.509040917681
 30
0.0
 10
-1407.125891300258
 20
1275.245826576606
 30
0.0
 10
-1407.853151436964
 20
1277.983129000194
 30
0.0
 10
-1407.447146666188
 20
1286.417245076348
 30
0.0
 10
-1405.503767020922
 20
1288.914079676431
 30
0.0
 10
-1403.560559630543
 20
1291.411086531401
 30
0.0
 10
-1395.357781868837
 20
1290.963568332642
 30
0.0
 10
-1390.057843477988
 20
1290.715176784293
 30
0.0
 10
-1388.792803581265
 20
1290.655921102856
 30
0.0
 10
-1389.230675506302
 20
1292.773967204451
 30
0.0
 10
-1389.396040198684
 20
1293.700181736679
 30
0.0
 10
-1389.396040198684
 20
1293.700181736679
 30
0.0
 10
-1393.27349772527
 20
1298.024985207136
 30
0.0
 10
-1395.820113987955
 20
1297.570576812861
 30
0.0
 10
-1398.367074760416
 20
1297.116168418586
 30
0.0
 10
-1408.554228830709
 20
1295.29819033171
 30
0.0
 10
-1408.843617042378
 20
1296.918592062167
 30
0.0
 10
-1409.132660744271
 20
1298.539166047512
 30
0.0
 10
-1410.84384080065
 20
1302.773363446935
 30
0.0
 10
-1409.70230765855
 20
1304.410473901518
 30
0.0
 10
-1408.561463536001
 20
1306.047584356102
 30
0.0
 10
-1404.244756045275
 20
1307.295054254259
 30
0.0
 10
-1398.555521607777
 20
1310.221837054536
 30
0.0
 10
-1392.866631680055
 20
1313.148619854812
 30
0.0
 10
-1386.945886673222
 20
1316.115538043969
 30
0.0
 10
-1386.945886673222
 20
1316.115538043969
 30
0.0
  0
SPLINE
  5
67
330
3D
100
AcDbEntity
  8
\U+30EC\U+30A4\U+30E4\U+30FC 2
 62
   250
420
  2234132
370
    18
100
AcDbSpline
210
0.0
220
0.0
230
1.0
 70
     8
 71
     3
 72
    14
 73
    10
 74
     0
 42
0.0000000001
 43
0.0000000001
 40
0.0
 40
0.0
 40
0.0
 40
0.0
 40
1.0
 40
1.0
 40
1.0
 40
2.0
 40
2.0
 40
2.0
 40
3.0
 40
3.0
 40
3.0
 40
3.0
 10
-1385.892031269061
 20
1273.610438670901
 30
0.0
 10
-1385.892031269061
 20
1273.610438670901
 30
0.0
 10
-1393.829191993629
 20
1240.625522442185
 30
0.0
 10
-1391.477568264045
 20
1223.692177942252
 30
0.0
 10
-1389.12594453446
 20
1206.758833442318
 30
0.0
 10
-1376.660891826603
 20
1142.553407801626
 30
0.0
 10
-1364.666439472483
 20
1104.688510598757
 30
0.0
 10
-1352.671987118364
 20
1066.823613395888
 30
0.0
 10
-1322.568378399519
 20
972.2792788594815
 30
0.0
 10
-1322.568378399519
 20
972.2792788594815
 30
0.0
  0
INSERT
  5
69
330
3D
100
AcDbEntity
  8
\U+30EC\U+30A4\U+30E4\U+30FC 2
100
AcDbBlockReference
  2
block 5
 10
0.0
 20
0.0
 30
0.0
  0
SPLINE
  5
72
330
3D
100
AcDbEntity
  8
\U+30EC\U+30A4\U+30E4\U+30FC 2
  6
AI-Linetype-4
 62
   250
420
  2234132
370
    18
100
AcDbSpline
210
0.0
220
0.0
230
1.0
 70
     8
 71
     3
 72
    41
 73
    37
 74
     0
 42
0.0000000001
 43
0.0000000001
 40
0.0
 40
0.0
 40
0.0
 40
0.0
 40
1.0
 40
1.0
 40
1.0
 40
2.0
 40
2.0
 40
2.0
 40
3.0
 40
3.0
 40
3.0
 40
4.0
 40
4.0
 40
4.0
 40
5.0
 40
5.0
 40
5.0
 40
6.0
 40
6.0
 40
6.0
 40
7.0
 40
7.0
 40
7.0
 40
8.0
 40
8.0
 40
8.0
 40
9.0
 40
9.0
 40
9.0
 40
10.0
 40
10.0
 40
10.0
 40
11.0
 40
11.0
 40
11.0
 40
12.0
 40
12.0
 40
12.0
 40
12.0
 10
-646.7001429884242
 20
855.9832860988566
 30
0.0
 10
-619.294390323839
 20
859.3482853339457
 30
0.0
 10
-589.7444088146984
 20
862.976662292631
 30
0.0
 10
-561.8618546204112
 20
866.4002281896054
 30
0.0
 10
-561.8618546204112
 20
866.4002281896054
 30
0.0
 10
-556.8637067931604
 20
826.1702713758957
 30
0.0
 10
-556.8637067931604
 20
826.1702713758957
 30
0.0
 10
-556.8637067931604
 20
826.1702713758957
 30
0.0
 10
-563.4955199772367
 20
825.2562869407085
 30
0.0
 10
-563.4955199772367
 20
825.2562869407085
 30
0.0
 10
-563.4955199772367
 20
825.2562869407085
 30
0.0
 10
-561.5641981741234
 20
811.5153422781904
 30
0.0
 10
-561.5641981741234
 20
811.5153422781904
 30
0.0
 10
-561.5641981741234
 20
811.5153422781904
 30
0.0
 10
-525.3489860326544
 20
816.6051297058029
 30
0.0
 10
-525.3489860326544
 20
816.6051297058029
 30
0.0
 10
-525.3489860326544
 20
816.6051297058029
 30
0.0
 10
-527.2803078357676
 20
830.3459021134331
 30
0.0
 10
-527.2803078357676
 20
830.3459021134331
 30
0.0
 10
-527.2803078357676
 20
830.3459021134331
 30
0.0
 10
-533.521446934091
 20
829.580401391614
 30
0.0
 10
-533.521446934091
 20
829.580401391614
 30
0.0
 10
-533.521446934091
 20
829.580401391614
 30
0.0
 10
-538.380757321696
 20
869.2832582483557
 30
0.0
 10
-538.380757321696
 20
869.2832582483557
 30
0.0
 10
-501.0272848809964
 20
873.86971689353
 30
0.0
 10
-469.1122437610151
 20
877.7883433383236
 30
0.0
 10
-453.1752215326843
 20
879.7451588648458
 30
0.0
 10
-446.2268038646514
 20
880.598337324605
 30
0.0
 10
-442.8475074738668
 20
885.4163065391144
 30
0.0
 10
-443.621276430305
 20
891.7189406324175
 30
0.0
 10
-444.3957344062948
 20
898.0217469806083
 30
0.0
 10
-448.3861911393418
 20
901.6575308994733
 30
0.0
 10
-454.6314643549748
 20
900.890652138551
 30
0.0
 10
-484.3988315326427
 20
897.2357479271294
 30
0.0
 10
-576.7367532099624
 20
885.8981034605654
 30
0.0
 10
-651.9036186420495
 20
876.6688588218739
 30
0.0
  0
INSERT
  5
75
330
3D
100
AcDbEntity
  8
\U+30EC\U+30A4\U+30E4\U+30FC 2
100
AcDbBlockReference
  2
block 6
 10
0.0
 20
0.0
 30
0.0
  0
SPLINE
  5
85
330
3D
100
AcDbEntity
  8
\U+30EC\U+30A4\U+30E4\U+30FC 2
 62
   250
420
  2234132
370
    18
100
AcDbSpline
210
0.0
220
0.0
230
1.0
 70
    11
 71
     3
 72
    44
 73
    40
 74
     0
 42
0.0000000001
 43
0.0000000001
 40
0.0
 40
0.0
 40
0.0
 40
0.0
 40
1.0
 40
1.0
 40
1.0
 40
2.0
 40
2.0
 40
2.0
 40
3.0
 40
3.0
 40
3.0
 40
4.0
 40
4.0
 40
4.0
 40
5.0
 40
5.0
 40
5.0
 40
6.0
 40
6.0
 40
6.0
 40
7.0
 40
7.0
 40
7.0
 40
8.0
 40
8.0
 40
8.0
 40
9.0
 40
9.0
 40
9.0
 40
10.0
 40
10.0
 40
10.0
 40
11.0
 40
11.0
 40
11.0
 40
12.0
 40
12.0
 40
12.0
 40
13.0
 40
13.0
 40
13.0
 40
13.0
 10
-1121.954823796997
 20
1103.983299087702
 30
0.0
 10
-1129.405192208365
 20
1110.369821311411
 30
0.0
 10
-1136.300899880701
 20
1115.977579186934
 30
0.0
 10
-1138.652868120062
 20
1117.153563306614
 30
0.0
 10
-1141.004836359422
 20
1118.329547426294
 30
0.0
 10
-1147.354840546897
 20
1120.681343410767
 30
0.0
 10
-1151.58817667188
 20
1117.623991405463
 30
0.0
 10
-1155.821512796864
 20
1114.56663940016
 30
0.0
 10
-1173.930669161589
 20
1102.101931202079
 30
0.0
 10
-1180.515973525933
 20
1094.811070816905
 30
0.0
 10
-1187.101277890277
 20
1087.52021043173
 30
0.0
 10
-1225.671214349313
 20
1042.364625098575
 30
0.0
 10
-1234.608486953017
 20
1031.075728765286
 30
0.0
 10
-1243.545759556721
 20
1019.786832431997
 30
0.0
 10
-1249.425163390458
 20
1002.618532264971
 30
0.0
 10
-1250.366019588158
 20
998.3851961399878
 30
0.0
 10
-1251.306875785857
 20
994.1518600150044
 30
0.0
 10
-1251.777476139595
 20
990.8592078328326
 30
0.0
 10
-1249.425507900234
 20
987.3314277286798
 30
0.0
 10
-1247.073539660874
 20
983.803647624527
 30
0.0
 10
-1225.906514526182
 20
965.4591910829326
 30
0.0
 10
-1222.143778754936
 20
962.6369669996104
 30
0.0
 10
-1218.38104298369
 20
959.8147429162882
 30
0.0
 10
-1211.090527108292
 20
958.1683306977583
 30
0.0
 10
-1204.269922567079
 20
961.9314109787798
 30
0.0
 10
-1197.449318025866
 20
965.6944912598015
 30
0.0
 10
-1181.927085567594
 20
977.9242437907895
 30
0.0
 10
-1171.579045432005
 20
988.9778399472096
 30
0.0
 10
-1161.231005296415
 20
1000.03143610363
 30
0.0
 10
-1134.419531995078
 20
1032.486840806947
 30
0.0
 10
-1125.717559568243
 20
1043.540609218255
 30
0.0
 10
-1117.015587141407
 20
1054.594377629563
 30
0.0
 10
-1109.960026933102
 20
1071.527894384385
 30
0.0
 10
-1108.078659047479
 20
1076.23148635333
 30
0.0
 10
-1106.197291161856
 20
1080.935078322275
 30
0.0
 10
-1104.786179120195
 20
1087.52021043173
 30
0.0
 10
-1108.078659047479
 20
1090.812862613902
 30
0.0
 10
-1111.371138974763
 20
1094.105514796074
 30
0.0
 10
-1117.016276160959
 20
1099.749962962719
 30
0.0
 10
-1121.954823796997
 20
1103.983299087702
 30
0.0
  0
SPLINE
  5
86
330
3D
100
AcDbEntity
  8
\U+30EC\U+30A4\U+30E4\U+30FC 2
 62
   250
420
  2234132
370
    18
100
AcDbSpline
210
0.0
220
0.0
230
1.0
 70
    11
 71
     3
 72
    17
 73
    13
 74
     0
 42
0.0000000001
 43
0.0000000001
 40
0.0
 40
0.0
 40
0.0
 40
0.0
 40
1.0
 40
1.0
 40
1.0
 40
2.0
 40
2.0
 40
2.0
 40
3.0
 40
3.0
 40
3.0
 40
4.0
 40
4.0
 40
4.0
 40
4.0
 10
-1123.365935838658
 20
1070.116782342723
 30
0.0
 10
-1123.365935838658
 20
1053.231324701626
 30
0.0
 10
-1137.054342760367
 20
1039.542917779916
 30
0.0
 10
-1153.939800401465
 20
1039.542917779916
 30
0.0
 10
-1170.825258042563
 20
1039.542917779916
 30
0.0
 10
-1184.513664964272
 20
1053.231324701626
 30
0.0
 10
-1184.513664964272
 20
1070.116782342723
 30
0.0
 10
-1184.513664964272
 20
1087.002239983821
 30
0.0
 10
-1170.825258042563
 20
1100.69064690553
 30
0.0
 10
-1153.939800401465
 20
1100.69064690553
 30
0.0
 10
-1137.054342760367
 20
1100.69064690553
 30
0.0
 10
-1123.365935838658
 20
1087.002239983821
 30
0.0
 10
-1123.365935838658
 20
1070.116782342723
 30
0.0
  0
SPLINE
  5
87
330
3D
100
AcDbEntity
  8
\U+30EC\U+30A4\U+30E4\U+30FC 2
 62
   250
420
  2234132
370
    18
100
AcDbSpline
210
0.0
220
0.0
230
1.0
 70
    11
 71
     3
 72
    17
 73
    13
 74
     0
 42
0.0000000001
 43
0.0000000001
 40
0.0
 40
0.0
 40
0.0
 40
0.0
 40
1.0
 40
1.0
 40
1.0
 40
2.0
 40
2.0
 40
2.0
 40
3.0
 40
3.0
 40
3.0
 40
4.0
 40
4.0
 40
4.0
 40
4.0
 10
-1148.060052057952
 20
1087.755855118375
 30
0.0
 10
-1148.060052057952
 20
1083.859105044345
 30
0.0
 10
-1151.218862192227
 20
1080.700294910069
 30
0.0
 10
-1155.115612266257
 20
1080.700294910069
 30
0.0
 10
-1159.012362340288
 20
1080.700294910069
 30
0.0
 10
-1162.171172474563
 20
1083.859105044345
 30
0.0
 10
-1162.171172474563
 20
1087.755855118375
 30
0.0
 10
-1162.171172474563
 20
1091.65226068263
 30
0.0
 10
-1159.012362340288
 20
1094.811070816905
 30
0.0
 10
-1155.115612266257
 20
1094.811070816905
 30
0.0
 10
-1151.218862192227
 20
1094.811070816905
 30
0.0
 10
-1148.060052057952
 20
1091.65226068263
 30
0.0
 10
-1148.060052057952
 20
1087.755855118375
 30
0.0
  0
SPLINE
  5
88
330
3D
100
AcDbEntity
  8
\U+30EC\U+30A4\U+30E4\U+30FC 2
 62
   250
420
  2234132
370
    18
100
AcDbSpline
210
0.0
220
0.0
230
1.0
 70
    11
 71
     3
 72
    17
 73
    13
 74
     0
 42
0.0000000001
 43
0.0000000001
 40
0.0
 40
0.0
 40
0.0
 40
0.0
 40
1.0
 40
1.0
 40
1.0
 40
2.0
 40
2.0
 40
2.0
 40
3.0
 40
3.0
 40
3.0
 40
4.0
 40
4.0
 40
4.0
 40
4.0
 10
-1128.069527807603
 20
1072.703878504065
 30
0.0
 10
-1128.069527807603
 20
1068.807128430034
 30
0.0
 10
-1131.228337941878
 20
1065.648318295759
 30
0.0
 10
-1135.125088015909
 20
1065.648318295759
 30
0.0
 10
-1139.021838089939
 20
1065.648318295759
 30
0.0
 10
-1142.180648224214
 20
1068.807128430034
 30
0.0
 10
-1142.180648224214
 20
1072.703878504065
 30
0.0
 10
-1142.180648224214
 20
1076.600284068319
 30
0.0
 10
-1139.021838089939
 20
1079.759094202594
 30
0.0
 10
-1135.125088015909
 20
1079.759094202594
 30
0.0
 10
-1131.228337941878
 20
1079.759094202594
 30
0.0
 10
-1128.069527807603
 20
1076.600284068319
 30
0.0
 10
-1128.069527807603
 20
1072.703878504065
 30
0.0
  0
SPLINE
  5
89
330
3D
100
AcDbEntity
  8
\U+30EC\U+30A4\U+30E4\U+30FC 2
 62
   250
420
  2234132
370
    18
100
AcDbSpline
210
0.0
220
0.0
230
1.0
 70
    11
 71
     3
 72
    17
 73
    13
 74
     0
 42
0.0000000001
 43
0.0000000001
 40
0.0
 40
0.0
 40
0.0
 40
0.0
 40
1.0
 40
1.0
 40
1.0
 40
2.0
 40
2.0
 40
2.0
 40
3.0
 40
3.0
 40
3.0
 40
4.0
 40
4.0
 40
4.0
 40
4.0
 10
-1143.591760265876
 20
1053.418565764771
 30
0.0
 10
-1143.591760265876
 20
1049.521815690741
 30
0.0
 10
-1146.750570400151
 20
1046.363005556465
 30
0.0
 10
-1150.647320474181
 20
1046.363005556465
 30
0.0
 10
-1154.544070548211
 20
1046.363005556465
 30
0.0
 10
-1157.702880682486
 20
1049.521815690741
 30
0.0
 10
-1157.702880682486
 20
1053.418565764771
 30
0.0
 10
-1157.702880682486
 20
1057.314971329026
 30
0.0
 10
-1154.544070548211
 20
1060.473781463301
 30
0.0
 10
-1150.647320474181
 20
1060.473781463301
 30
0.0
 10
-1146.750570400151
 20
1060.473781463301
 30
0.0
 10
-1143.591760265876
 20
1057.314971329026
 30
0.0
 10
-1143.591760265876
 20
1053.418565764771
 30
0.0
  0
SPLINE
  5
8A
330
3D
100
AcDbEntity
  8
\U+30EC\U+30A4\U+30E4\U+30FC 2
 62
   250
420
  2234132
370
    18
100
AcDbSpline
210
0.0
220
0.0
230
1.0
 70
    11
 71
     3
 72
    17
 73
    13
 74
     0
 42
0.0000000001
 43
0.0000000001
 40
0.0
 40
0.0
 40
0.0
 40
0.0
 40
1.0
 40
1.0
 40
1.0
 40
2.0
 40
2.0
 40
2.0
 40
3.0
 40
3.0
 40
3.0
 40
4.0
 40
4.0
 40
4.0
 40
4.0
 10
-1163.112028672262
 20
1069.411226321893
 30
0.0
 10
-1163.112028672262
 20
1065.514476247862
 30
0.0
 10
-1166.270838806537
 20
1062.355666113587
 30
0.0
 10
-1170.167588880568
 20
1062.355666113587
 30
0.0
 10
-1174.064338954598
 20
1062.355666113587
 30
0.0
 10
-1177.223149088873
 20
1065.514476247862
 30
0.0
 10
-1177.223149088873
 20
1069.411226321893
 30
0.0
 10
-1177.223149088873
 20
1073.307631886147
 30
0.0
 10
-1174.064338954598
 20
1076.466442020423
 30
0.0
 10
-1170.167588880568
 20
1076.466442020423
 30
0.0
 10
-1166.270838806537
 20
1076.466442020423
 30
0.0
 10
-1163.112028672262
 20
1073.307631886147
 30
0.0
 10
-1163.112028672262
 20
1069.411226321893
 30
0.0
  0
SPLINE
  5
8B
330
3D
100
AcDbEntity
  8
\U+30EC\U+30A4\U+30E4\U+30FC 2
 62
   250
420
  2234132
370
    18
100
AcDbSpline
210
0.0
220
0.0
230
1.0
 70
    11
 71
     3
 72
    17
 73
    13
 74
     0
 42
0.0000000001
 43
0.0000000001
 40
0.0
 40
0.0
 40
0.0
 40
0.0
 40
1.0
 40
1.0
 40
1.0
 40
2.0
 40
2.0
 40
2.0
 40
3.0
 40
3.0
 40
3.0
 40
4.0
 40
4.0
 40
4.0
 40
4.0
 10
-1157.232280328749
 20
1026.607609228098
 30
0.0
 10
-1157.232280328749
 20
1022.710859154067
 30
0.0
 10
-1160.391090463024
 20
1019.552049019792
 30
0.0
 10
-1164.287840537055
 20
1019.552049019792
 30
0.0
 10
-1168.184590611085
 20
1019.552049019792
 30
0.0
 10
-1171.34340074536
 20
1022.710859154067
 30
0.0
 10
-1171.34340074536
 20
1026.607609228098
 30
0.0
 10
-1171.34340074536
 20
1030.504014792353
 30
0.0
 10
-1168.184590611085
 20
1033.662824926628
 30
0.0
 10
-1164.287840537055
 20
1033.662824926628
 30
0.0
 10
-1160.391090463024
 20
1033.662824926628
 30
0.0
 10
-1157.232280328749
 20
1030.504014792353
 30
0.0
 10
-1157.232280328749
 20
1026.607609228098
 30
0.0
  0
SPLINE
  5
8C
330
3D
100
AcDbEntity
  8
\U+30EC\U+30A4\U+30E4\U+30FC 2
 62
   250
420
  2234132
370
    18
100
AcDbSpline
210
0.0
220
0.0
230
1.0
 70
    11
 71
     3
 72
    17
 73
    13
 74
     0
 42
0.0000000001
 43
0.0000000001
 40
0.0
 40
0.0
 40
0.0
 40
0.0
 40
1.0
 40
1.0
 40
1.0
 40
2.0
 40
2.0
 40
2.0
 40
3.0
 40
3.0
 40
3.0
 40
4.0
 40
4.0
 40
4.0
 40
4.0
 10
-1187.335889047594
 20
1051.772498056017
 30
0.0
 10
-1187.335889047594
 20
1047.875747981986
 30
0.0
 10
-1190.494699181869
 20
1044.716937847711
 30
0.0
 10
-1194.391449255899
 20
1044.716937847711
 30
0.0
 10
-1198.28819932993
 20
1044.716937847711
 30
0.0
 10
-1201.447009464205
 20
1047.875747981986
 30
0.0
 10
-1201.447009464205
 20
1051.772498056017
 30
0.0
 10
-1201.447009464205
 20
1055.668903620272
 30
0.0
 10
-1198.28819932993
 20
1058.827713754546
 30
0.0
 10
-1194.391449255899
 20
1058.827713754546
 30
0.0
 10
-1190.494699181869
 20
1058.827713754546
 30
0.0
 10
-1187.335889047594
 20
1055.668903620272
 30
0.0
 10
-1187.335889047594
 20
1051.772498056017
 30
0.0
  0
POLYLINE
  5
8D
330
3D
100
AcDbEntity
  8
\U+30EC\U+30A4\U+30E4\U+30FC 2
 62
   250
420
  2234132
370
    18
100
AcDb2dPolyline
 66
     1
 10
0.0
 20
0.0
 30
0.0
  0
VERTEX
  5
8E
330
8D
100
AcDbEntity
  8
\U+30EC\U+30A4\U+30E4\U+30FC 2
 62
   250
420
  2234132
370
    18
100
AcDbVertex
100
AcDb2dVertex
 10
-1206.491321601413
 20
984.1297261273181
 30
0.0
  0
VERTEX
  5
8F
330
8D
100
AcDbEntity
  8
\U+30EC\U+30A4\U+30E4\U+30FC 2
 62
   250
420
  2234132
370
    18
100
AcDbVertex
100
AcDb2dVertex
 10
-1229.072903875524
 20
1003.077591541219
 30
0.0
  0
VERTEX
  5
90
330
8D
100
AcDbEntity
  8
\U+30EC\U+30A4\U+30E4\U+30FC 2
 62
   250
420
  2234132
370
    18
100
AcDbVertex
100
AcDb2dVertex
 10
-1214.880479151825
 20
1019.99147123882
 30
0.0
  0
VERTEX
  5
91
330
8D
100
AcDbEntity
  8
\U+30EC\U+30A4\U+30E4\U+30FC 2
 62
   250
420
  2234132
370
    18
100
AcDbVertex
100
AcDb2dVertex
 10
-1192.298896877714
 20
1001.043089060255
 30
0.0
  0
VERTEX
  5
92
330
8D
100
AcDbEntity
  8
\U+30EC\U+30A4\U+30E4\U+30FC 2
 62
   250
420
  2234132
370
    18
100
AcDbVertex
100
AcDb2dVertex
 10
-1206.491321601413
 20
984.1297261273181
 30
0.0
  0
SEQEND
  5
93
330
8D
100
AcDbEntity
  8
\U+30EC\U+30A4\U+30E4\U+30FC 2
370
    18
  0
ENDBLK
  5
40
330
3D
100
AcDbEntity
  8
0
100
AcDbBlockEnd
  0
BLOCK
  5
44
330
42
100
AcDbEntity
  8
0
100
AcDbBlockBegin
  2
block 3
 70
     0
 71
     0
 10
0.0
 20
0.0
 30
0.0
  3
block 3
  1

  0
POLYLINE
  5
46
330
42
100
AcDbEntity
  8
\U+30EC\U+30A4\U+30E4\U+30FC 2
 62
   250
420
  2234132
370
    18
100
AcDb2dPolyline
 66
     1
 10
0.0
 20
0.0
 30
0.0
  0
VERTEX
  5
47
330
46
100
AcDbEntity
  8
\U+30EC\U+30A4\U+30E4\U+30FC 2
 62
   250
420
  2234132
370
    18
100
AcDbVertex
100
AcDb2dVertex
 10
-418.8038257112764
 20
549.3663127973963
 30
0.0
  0
VERTEX
  5
48
330
46
100
AcDbEntity
  8
\U+30EC\U+30A4\U+30E4\U+30FC 2
 62
   250
420
  2234132
370
    18
100
AcDbVertex
100
AcDb2dVertex
 10
-442.2642524234438
 20
546.4860388168524
 30
0.0
  0
VERTEX
  5
49
330
46
100
AcDbEntity
  8
\U+30EC\U+30A4\U+30E4\U+30FC 2
 62
   250
420
  2234132
370
    18
100
AcDbVertex
100
AcDb2dVertex
 10
-447.1108159493444
 20
585.9620359862323
 30
0.0
  0
VERTEX
  5
4A
330
46
100
AcDbEntity
  8
\U+30EC\U+30A4\U+30E4\U+30FC 2
 62
   250
420
  2234132
370
    18
100
AcDbVertex
100
AcDb2dVertex
 10
-423.6507337469527
 20
588.8423099667762
 30
0.0
  0
VERTEX
  5
4B
330
46
100
AcDbEntity
  8
\U+30EC\U+30A4\U+30E4\U+30FC 2
 62
   250
420
  2234132
370
    18
100
AcDbVertex
100
AcDb2dVertex
 10
-418.8038257112764
 20
549.3663127973963
 30
0.0
  0
SEQEND
  5
4C
330
46
100
AcDbEntity
  8
\U+30EC\U+30A4\U+30E4\U+30FC 2
370
    18
  0
POLYLINE
  5
4D
330
42
100
AcDbEntity
  8
\U+30EC\U+30A4\U+30E4\U+30FC 2
 62
   250
420
  2234132
370
    18
100
AcDb2dPolyline
 66
     1
 10
0.0
 20
0.0
 30
0.0
  0
VERTEX
  5
4E
330
4D
100
AcDbEntity
  8
\U+30EC\U+30A4\U+30E4\U+30FC 2
 62
   250
420
  2234132
370
    18
100
AcDbVertex
100
AcDb2dVertex
 10
-410.6406665737861
 20
536.5140311015444
 30
0.0
  0
VERTEX
  5
4F
330
4D
100
AcDbEntity
  8
\U+30EC\U+30A4\U+30E4\U+30FC 2
 62
   250
420
  2234132
370
    18
100
AcDbVertex
100
AcDb2dVertex
 10
-446.8558787152552
 20
531.4242436739319
 30
0.0
  0
VERTEX
  5
50
330
4D
100
AcDbEntity
  8
\U+30EC\U+30A4\U+30E4\U+30FC 2
 62
   250
420
  2234132
370
    18
100
AcDbVertex
100
AcDb2dVertex
 10
-448.7872005183685
 20
545.1651883364499
 30
0.0
  0
VERTEX
  5
51
330
4D
100
AcDbEntity
  8
\U+30EC\U+30A4\U+30E4\U+30FC 2
 62
   250
420
  2234132
370
    18
100
AcDbVertex
100
AcDb2dVertex
 10
-412.5719883768995
 20
550.2548035091746
 30
0.0
  0
VERTEX
  5
52
330
4D
100
AcDbEntity
  8
\U+30EC\U+30A4\U+30E4\U+30FC 2
 62
   250
420
  2234132
370
    18
100
AcDbVertex
100
AcDb2dVertex
 10
-410.6406665737861
 20
536.5140311015444
 30
0.0
  0
SEQEND
  5
53
330
4D
100
AcDbEntity
  8
\U+30EC\U+30A4\U+30E4\U+30FC 2
370
    18
  0
ENDBLK
  5
45
330
42
100
AcDbEntity
  8
0
100
AcDbBlockEnd
  0
BLOCK
  5
5A
330
58
100
AcDbEntity
  8
0
100
AcDbBlockBegin
  2
block 4
 70
     0
 71
     0
 10
0.0
 20
0.0
 30
0.0
  3
block 4
  1

  0
POLYLINE
  5
5C
330
58
100
AcDbEntity
  8
\U+30EC\U+30A4\U+30E4\U+30FC 2
 62
   250
420
  2234132
370
    18
100
AcDb2dPolyline
 66
     1
 10
0.0
 20
0.0
 30
0.0
  0
VERTEX
  5
5D
330
5C
100
AcDbEntity
  8
\U+30EC\U+30A4\U+30E4\U+30FC 2
 62
   250
420
  2234132
370
    18
100
AcDbVertex
100
AcDb2dVertex
 10
-774.3089755117558
 20
530.7398750043128
 30
0.0
  0
VERTEX
  5
5E
330
5C
100
AcDbEntity
  8
\U+30EC\U+30A4\U+30E4\U+30FC 2
 62
   250
420
  2234132
370
    18
100
AcDbVertex
100
AcDb2dVertex
 10
-1374.309268097018
 20
530.7398750043128
 30
0.0
  0
VERTEX
  5
5F
330
5C
100
AcDbEntity
  8
\U+30EC\U+30A4\U+30E4\U+30FC 2
 62
   250
420
  2234132
370
    18
100
AcDbVertex
100
AcDb2dVertex
 10
-1374.309268097018
 20
540.7397880114603
 30
0.0
  0
VERTEX
  5
60
330
5C
100
AcDbEntity
  8
\U+30EC\U+30A4\U+30E4\U+30FC 2
 62
   250
420
  2234132
370
    18
100
AcDbVertex
100
AcDb2dVertex
 10
-774.3089755117558
 20
540.7397880114603
 30
0.0
  0
VERTEX
  5
61
330
5C
100
AcDbEntity
  8
\U+30EC\U+30A4\U+30E4\U+30FC 2
 62
   250
420
  2234132
370
    18
100
AcDbVertex
100
AcDb2dVertex
 10
-774.3089755117558
 20
530.7398750043128
 30
0.0
  0
SEQEND
  5
62
330
5C
100
AcDbEntity
  8
\U+30EC\U+30A4\U+30E4\U+30FC 2
370
    18
  0
SPLINE
  5
63
330
58
100
AcDbEntity
  8
\U+30EC\U+30A4\U+30E4\U+30FC 2
 62
   250
420
  2234132
370
    18
100
AcDbSpline
210
0.0
220
0.0
230
1.0
 70
     8
 71
     3
 72
    11
 73
     7
 74
     0
 42
0.0000000001
 43
0.0000000001
 40
0.0
 40
0.0
 40
0.0
 40
0.0
 40
1.0
 40
1.0
 40
1.0
 40
2.0
 40
2.0
 40
2.0
 40
2.0
 10
-1354.553355003987
 20
540.9492499551443
 30
0.0
 10
-1354.318054827118
 20
542.3603619968054
 30
0.0
 10
-1295.286993763996
 20
554.8252424497745
 30
0.0
 10
-1265.183040535375
 20
558.2353724654929
 30
0.0
 10
-1251.765762807218
 20
559.7553495963056
 30
0.0
 10
-1223.693728236243
 20
560.7656245138279
 30
0.0
 10
-1191.658453204509
 20
561.4184705389616
 30
0.0
  0
SPLINE
  5
64
330
58
100
AcDbEntity
  8
\U+30EC\U+30A4\U+30E4\U+30FC 2
 62
   250
420
  2234132
370
    18
100
AcDbSpline
210
0.0
220
0.0
230
1.0
 70
     8
 71
     3
 72
    11
 73
     7
 74
     0
 42
0.0000000001
 43
0.0000000001
 40
0.0
 40
0.0
 40
0.0
 40
0.0
 40
1.0
 40
1.0
 40
1.0
 40
2.0
 40
2.0
 40
2.0
 40
2.0
 10
-794.0645440950112
 20
540.9492499551443
 30
0.0
 10
-794.29984427188
 20
542.3603619968054
 30
0.0
 10
-853.330905335002
 20
554.8252424497745
 30
0.0
 10
-883.4348585636228
 20
558.2353724654929
 30
0.0
 10
-896.9647909884657
 20
559.7680964580101
 30
0.0
 10
-925.3964937653719
 20
560.7825054928419
 30
0.0
 10
-957.7669768089557
 20
561.4348347533119
 30
0.0
  0
ENDBLK
  5
5B
330
58
100
AcDbEntity
  8
0
100
AcDbBlockEnd
  0
BLOCK
  5
6A
330
68
100
AcDbEntity
  8
0
100
AcDbBlockBegin
  2
block 5
 70
     0
 71
     0
 10
0.0
 20
0.0
 30
0.0
  3
block 5
  1

  0
SPLINE
  5
6C
330
68
100
AcDbEntity
  8
\U+30EC\U+30A4\U+30E4\U+30FC 2
  6
AI-Linetype-1
 62
   250
420
  2234132
370
    18
100
AcDbSpline
210
0.0
220
0.0
230
1.0
 70
     8
 71
     3
 72
    65
 73
    61
 74
     0
 42
0.0000000001
 43
0.0000000001
 40
0.0
 40
0.0
 40
0.0
 40
0.0
 40
1.0
 40
1.0
 40
1.0
 40
2.0
 40
2.0
 40
2.0
 40
3.0
 40
3.0
 40
3.0
 40
4.0
 40
4.0
 40
4.0
 40
5.0
 40
5.0
 40
5.0
 40
6.0
 40
6.0
 40
6.0
 40
7.0
 40
7.0
 40
7.0
 40
8.0
 40
8.0
 40
8.0
 40
9.0
 40
9.0
 40
9.0
 40
10.0
 40
10.0
 40
10.0
 40
11.0
 40
11.0
 40
11.0
 40
12.0
 40
12.0
 40
12.0
 40
13.0
 40
13.0
 40
13.0
 40
14.0
 40
14.0
 40
14.0
 40
15.0
 40
15.0
 40
15.0
 40
16.0
 40
16.0
 40
16.0
 40
17.0
 40
17.0
 40
17.0
 40
18.0
 40
18.0
 40
18.0
 40
19.0
 40
19.0
 40
19.0
 40
20.0
 40
20.0
 40
20.0
 40
20.0
 10
-1491.998458390963
 20
1121.151082490065
 30
0.0
 10
-1512.227727915938
 20
1126.32510255786
 30
0.0
 10
-1585.618817708684
 20
1143.728875156642
 30
0.0
 10
-1601.143633990274
 20
1151.960419484628
 30
0.0
 10
-1616.668622526753
 20
1160.191963812614
 30
0.0
 10
-1630.311726412945
 20
1172.42188859849
 30
0.0
 10
-1630.311726412945
 20
1172.42188859849
 30
0.0
 10
-1630.311726412945
 20
1172.42188859849
 30
0.0
 10
-1632.193438808343
 20
1155.723672020538
 30
0.0
 10
-1635.01617965633
 20
1155.488544098557
 30
0.0
 10
-1637.838920504315
 20
1155.253416176576
 30
0.0
 10
-1646.071842871404
 20
1157.134956317087
 30
0.0
 10
-1648.18902769856
 20
1159.486752301559
 30
0.0
 10
-1650.306040270827
 20
1161.838548286032
 30
0.0
 10
-1648.42415562054
 20
1169.834792437149
 30
0.0
 10
-1647.24817150086
 20
1175.008984759831
 30
0.0
 10
-1646.967396033587
 20
1176.243880051173
 30
0.0
 10
-1649.129883896259
 20
1176.184796624624
 30
0.0
 10
-1650.070740093958
 20
1176.184796624624
 30
0.0
 10
-1650.070740093958
 20
1176.184796624624
 30
0.0
 10
-1655.0106657691
 20
1173.127272364433
 30
0.0
 10
-1655.0106657691
 20
1170.540348457979
 30
0.0
 10
-1655.0106657691
 20
1167.953424551526
 30
0.0
 10
-1655.0106657691
 20
1157.605212161048
 30
0.0
 10
-1656.657077987629
 20
1157.605212161048
 30
0.0
 10
-1658.303662461047
 20
1157.605212161048
 30
0.0
 10
-1662.772987782451
 20
1156.664528218237
 30
0.0
 10
-1664.184444333888
 20
1158.075640259898
 30
0.0
 10
-1665.595728630437
 20
1159.486752301559
 30
0.0
 10
-1666.066156729287
 20
1163.955388603411
 30
0.0
 10
-1667.948041379573
 20
1170.070092614018
 30
0.0
 10
-1669.82992602986
 20
1176.184796624624
 30
0.0
 10
-1671.711638425258
 20
1182.534800812099
 30
0.0
 10
-1671.711638425258
 20
1182.534800812099
 30
0.0
 10
-1671.711638425258
 20
1182.534800812099
 30
0.0
 10
-1674.769679450113
 20
1182.534456302323
 30
0.0
 10
-1689.353811788892
 20
1187.238220526156
 30
0.0
 10
-1703.937944127671
 20
1191.941984749989
 30
0.0
 10
-1719.698060586131
 20
1197.586432916633
 30
0.0
 10
-1728.166110875201
 20
1207.934473052223
 30
0.0
 10
-1736.634505674046
 20
1218.282513187812
 30
0.0
 10
-1735.693477221459
 20
1233.334489802123
 30
0.0
 10
-1732.400480529511
 20
1242.50671807292
 30
0.0
 10
-1732.400480529511
 20
1242.50671807292
 30
0.0
 10
-1737.575189616858
 20
1264.379471483331
 30
0.0
 10
-1739.221946345164
 20
1276.609051759431
 30
0.0
 10
-1740.868186308805
 20
1288.838632035531
 30
0.0
 10
-1736.163733065421
 20
1307.653344421087
 30
0.0
 10
-1727.930810698332
 20
1320.823780894887
 30
0.0
 10
-1719.698060586131
 20
1333.994217368687
 30
0.0
 10
-1700.409475003967
 20
1343.636701483446
 30
0.0
 10
-1685.825342665188
 20
1344.107129582295
 30
0.0
 10
-1671.241210326409
 20
1344.577557681145
 30
0.0
 10
-1639.250377055752
 20
1340.579349478143
 30
0.0
 10
-1621.608375947006
 20
1336.110885431179
 30
0.0
 10
-1603.96637483826
 20
1331.642421384214
 30
0.0
 10
-1588.911814400631
 20
1328.820025046004
 30
0.0
 10
-1565.389203673933
 20
1318.707112832396
 30
0.0
 10
-1565.389203673933
 20
1318.707112832396
 30
0.0
 10
-1500.348858591598
 20
1295.012247217799
 30
0.0
 10
-1500.348858591598
 20
1295.012247217799
 30
0.0
  0
SPLINE
  5
6E
330
68
100
AcDbEntity
  8
\U+30EC\U+30A4\U+30E4\U+30FC 2
  6
AI-Linetype-2
 62
   250
420
  2234132
370
    18
100
AcDbSpline
210
0.0
220
0.0
230
1.0
 70
     8
 71
     3
 72
    23
 73
    19
 74
     0
 42
0.0000000001
 43
0.0000000001
 40
0.0
 40
0.0
 40
0.0
 40
0.0
 40
1.0
 40
1.0
 40
1.0
 40
2.0
 40
2.0
 40
2.0
 40
3.0
 40
3.0
 40
3.0
 40
4.0
 40
4.0
 40
4.0
 40
5.0
 40
5.0
 40
5.0
 40
6.0
 40
6.0
 40
6.0
 40
6.0
 10
-1491.998458390963
 20
1121.151082490065
 30
0.0
 10
-1491.998458390963
 20
1121.151082490065
 30
0.0
 10
-1474.944363214613
 20
1062.355149348924
 30
0.0
 10
-1464.359128098388
 20
1036.778743593816
 30
0.0
 10
-1453.77406523705
 20
1011.202337838708
 30
0.0
 10
-1438.778243716195
 20
971.1620336565745
 30
0.0
 10
-1420.077736321315
 20
942.7634038181448
 30
0.0
 10
-1401.377228926435
 20
914.3647739797149
 30
0.0
 10
-1390.086437789379
 20
904.8397676985024
 30
0.0
 10
-1390.086437789379
 20
904.8397676985024
 30
0.0
 10
-1385.976780673907
 20
901.0474040865382
 30
0.0
 10
-1370.451792137428
 20
893.1098988521945
 30
0.0
 10
-1361.454574832736
 20
891.9633703183448
 30
0.0
 10
-1352.457013018267
 20
890.8168417844952
 30
0.0
 10
-1345.841391793653
 20
891.1696197949104
 30
0.0
 10
-1338.608064541037
 20
892.0515648209487
 30
0.0
 10
-1331.374737288421
 20
892.9335098469868
 30
0.0
 10
-1317.96676132421
 20
895.4911504224976
 30
0.0
 10
-1317.96676132421
 20
895.4911504224976
 30
0.0
  0
SPLINE
  5
70
330
68
100
AcDbEntity
  8
\U+30EC\U+30A4\U+30E4\U+30FC 2
  6
AI-Linetype-3
 62
   250
420
  2234132
370
    18
100
AcDbSpline
210
0.0
220
0.0
230
1.0
 70
     8
 71
     3
 72
    65
 73
    61
 74
     0
 42
0.0000000001
 43
0.0000000001
 40
0.0
 40
0.0
 40
0.0
 40
0.0
 40
1.0
 40
1.0
 40
1.0
 40
2.0
 40
2.0
 40
2.0
 40
3.0
 40
3.0
 40
3.0
 40
4.0
 40
4.0
 40
4.0
 40
5.0
 40
5.0
 40
5.0
 40
6.0
 40
6.0
 40
6.0
 40
7.0
 40
7.0
 40
7.0
 40
8.0
 40
8.0
 40
8.0
 40
9.0
 40
9.0
 40
9.0
 40
10.0
 40
10.0
 40
10.0
 40
11.0
 40
11.0
 40
11.0
 40
12.0
 40
12.0
 40
12.0
 40
13.0
 40
13.0
 40
13.0
 40
14.0
 40
14.0
 40
14.0
 40
15.0
 40
15.0
 40
15.0
 40
16.0
 40
16.0
 40
16.0
 40
17.0
 40
17.0
 40
17.0
 40
18.0
 40
18.0
 40
18.0
 40
19.0
 40
19.0
 40
19.0
 40
20.0
 40
20.0
 40
20.0
 40
20.0
 10
-1500.348858591598
 20
1295.012247217799
 30
0.0
 10
-1500.348858591598
 20
1295.012247217799
 30
0.0
 10
-1486.588104616972
 20
1339.638665535331
 30
0.0
 10
-1453.068336961332
 20
1380.560914743503
 30
0.0
 10
-1419.548569305692
 20
1421.483163951675
 30
0.0
 10
-1383.206233056954
 20
1442.473455571384
 30
0.0
 10
-1337.689601478764
 20
1458.52485504528
 30
0.0
 10
-1292.17331441035
 20
1474.576254519175
 30
0.0
 10
-1235.895230965616
 20
1482.160981743103
 30
0.0
 10
-1172.560553783248
 20
1481.455425722273
 30
0.0
 10
-1109.225532091104
 20
1480.749869701442
 30
0.0
 10
-1036.364126078645
 20
1468.579028342115
 30
0.0
 10
-1013.606154799326
 20
1459.406800071318
 30
0.0
 10
-990.8478390102313
 20
1450.234571800521
 30
0.0
 10
-955.7402257979469
 20
1434.183172326625
 30
0.0
 10
-930.3357304209616
 20
1406.842876519441
 30
0.0
 10
-904.9312350439764
 20
1379.502580712257
 30
0.0
 10
-877.0569490843083
 20
1297.834471301121
 30
0.0
 10
-870.5291778525225
 20
1273.669177587675
 30
0.0
 10
-864.0017511305125
 20
1249.503883874228
 30
0.0
 10
-861.0027935322069
 20
1233.276095395125
 30
0.0
 10
-861.0027935322069
 20
1233.276095395125
 30
0.0
 10
-861.0027935322069
 20
1233.276095395125
 30
0.0
 10
-825.3656687945238
 20
1233.452484400333
 30
0.0
 10
-825.3656687945238
 20
1233.452484400333
 30
0.0
 10
-825.3656687945238
 20
1233.452484400333
 30
0.0
 10
-808.076445696193
 20
1257.441389108572
 30
0.0
 10
-793.9629137111514
 20
1260.263613191894
 30
0.0
 10
-779.8493817261098
 20
1263.085837275216
 30
0.0
 10
-723.042131265752
 20
1266.260839368954
 30
0.0
 10
-680.348412790436
 20
1265.202505337708
 30
0.0
 10
-637.65469431512
 20
1264.144171306462
 30
0.0
 10
-528.2742185389395
 20
1260.616391202309
 30
0.0
 10
-500.0471545688563
 20
1256.030277066911
 30
0.0
 10
-471.8197460889972
 20
1251.444162931512
 30
0.0
 10
-450.6496203663226
 20
1241.213600629469
 30
0.0
 10
-449.590941825301
 20
1234.863596441994
 30
0.0
 10
-448.5322632842793
 20
1228.513592254519
 30
0.0
 10
-467.0748129469566
 20
1174.812269677852
 30
0.0
 10
-480.8348779020313
 20
1168.991604760887
 30
0.0
 10
-494.5949428571061
 20
1163.170939843923
 30
0.0
 10
-514.7053565094317
 20
1166.345769682773
 30
0.0
 10
-519.9980601949882
 20
1166.345769682773
 30
0.0
 10
-525.2907638805448
 20
1166.345769682773
 30
0.0
 10
-550.6938812184269
 20
1145.709117347919
 30
0.0
 10
-555.9862403942076
 20
1141.476125732711
 30
0.0
 10
-561.2782550602126
 20
1137.243134117504
 30
0.0
 10
-582.9768587789584
 20
1134.068304278654
 30
0.0
 10
-582.9768587789584
 20
1134.068304278654
 30
0.0
 10
-582.9768587789584
 20
1134.068304278654
 30
0.0
 10
-587.7403954488921
 20
1126.131143554086
 30
0.0
 10
-587.7403954488921
 20
1126.131143554086
 30
0.0
 10
-587.7403954488921
 20
1126.131143554086
 30
0.0
 10
-716.3438276949471
 20
1112.373490167442
 30
0.0
 10
-716.3438276949471
 20
1112.373490167442
 30
0.0
 10
-716.3438276949471
 20
1112.373490167442
 30
0.0
 10
-717.9316732515916
 20
1104.965496458497
 30
0.0
 10
-717.9316732515916
 20
1104.965496458497
 30
0.0
 10
-717.9316732515916
 20
1104.965496458497
 30
0.0
 10
-729.6250240616653
 20
1104.004486438914
 30
0.0
 10
-729.6250240616653
 20
1104.004486438914
 30
0.0
  0
ENDBLK
  5
6B
330
68
100
AcDbEntity
  8
0
100
AcDbBlockEnd
  0
BLOCK
  5
76
330
74
100
AcDbEntity
  8
0
100
AcDbBlockBegin
  2
block 6
 70
     0
 71
     0
 10
0.0
 20
0.0
 30
0.0
  3
block 6
  1

  0
INSERT
  5
79
330
74
100
AcDbEntity
  8
\U+30EC\U+30A4\U+30E4\U+30FC 2
100
AcDbBlockReference
  2
block 7
 10
0.0
 20
0.0
 30
0.0
  0
INSERT
  5
7F
330
74
100
AcDbEntity
  8
\U+30EC\U+30A4\U+30E4\U+30FC 2
100
AcDbBlockReference
  2
block 8
 10
0.0
 20
0.0
 30
0.0
  0
ENDBLK
  5
77
330
74
100
AcDbEntity
  8
0
100
AcDbBlockEnd
  0
BLOCK
  5
7A
330
78
100
AcDbEntity
  8
0
100
AcDbBlockBegin
  2
block 7
 70
     0
 71
     0
 10
0.0
 20
0.0
 30
0.0
  3
block 7
  1

  0
SPLINE
  5
7C
330
78
100
AcDbEntity
  8
\U+30EC\U+30A4\U+30E4\U+30FC 2
 62
   250
420
  2234132
370
    18
100
AcDbSpline
210
0.0
220
0.0
230
1.0
 70
    11
 71
     3
 72
    62
 73
    58
 74
     0
 42
0.0000000001
 43
0.0000000001
 40
0.0
 40
0.0
 40
0.0
 40
0.0
 40
1.0
 40
1.0
 40
1.0
 40
2.0
 40
2.0
 40
2.0
 40
3.0
 40
3.0
 40
3.0
 40
4.0
 40
4.0
 40
4.0
 40
5.0
 40
5.0
 40
5.0
 40
6.0
 40
6.0
 40
6.0
 40
7.0
 40
7.0
 40
7.0
 40
8.0
 40
8.0
 40
8.0
 40
9.0
 40
9.0
 40
9.0
 40
10.0
 40
10.0
 40
10.0
 40
11.0
 40
11.0
 40
11.0
 40
12.0
 40
12.0
 40
12.0
 40
13.0
 40
13.0
 40
13.0
 40
14.0
 40
14.0
 40
14.0
 40
15.0
 40
15.0
 40
15.0
 40
16.0
 40
16.0
 40
16.0
 40
17.0
 40
17.0
 40
17.0
 40
18.0
 40
18.0
 40
18.0
 40
19.0
 40
19.0
 40
19.0
 40
19.0
 10
-1076.564627306524
 20
619.9715242881664
 30
0.0
 10
-1096.32019588978
 20
619.9715242881664
 30
0.0
 10
-1125.247992743833
 20
620.9123804858657
 30
0.0
 10
-1136.536889077121
 20
619.0308403453549
 30
0.0
 10
-1147.82578541041
 20
617.1493002048442
 30
0.0
 10
-1168.756821348682
 20
615.7387049278467
 30
0.0
 10
-1184.044098139862
 20
619.7367408759612
 30
0.0
 10
-1199.331374931041
 20
623.7347768240758
 30
0.0
 10
-1216.500019607843
 20
647.9589817091834
 30
0.0
 10
-1228.964727805924
 20
664.8923262091167
 30
0.0
 10
-1241.429436004005
 20
681.82567070905
 30
0.0
 10
-1276.236292182019
 20
761.5538455726784
 30
0.0
 10
-1285.879120806554
 20
789.3056583070509
 30
0.0
 10
-1295.521949431089
 20
817.0574710414234
 30
0.0
 10
-1307.28110160834
 20
861.9779284525979
 30
0.0
 10
-1313.866405972683
 20
895.6094895304836
 30
0.0
 10
-1320.451710337027
 20
929.2410506083693
 30
0.0
 10
-1319.510509629552
 20
958.4041476392907
 30
0.0
 10
-1311.749393400416
 20
999.7968249463125
 30
0.0
 10
-1303.98827717128
 20
1041.189502253334
 30
0.0
 10
-1275.295780494096
 20
1079.995083399015
 30
0.0
 10
-1261.419960254354
 20
1098.339539940609
 30
0.0
 10
-1247.544140014611
 20
1116.683996482204
 30
0.0
 10
-1208.503603201838
 20
1148.19871724271
 30
0.0
 10
-1180.046062191747
 20
1160.89872561766
 30
0.0
 10
-1151.588521181656
 20
1173.59873399261
 30
0.0
 10
-1081.738475119431
 20
1192.414652162381
 30
0.0
 10
-1048.106741786658
 20
1194.296020048004
 30
0.0
 10
-1014.475008453884
 20
1196.177387933627
 30
0.0
 10
-945.0955627453969
 20
1195.942087756758
 30
0.0
 10
-900.6455334330719
 20
1189.121827725321
 30
0.0
 10
-856.195504120747
 20
1182.301567693885
 30
0.0
 10
-803.2788025584556
 20
1171.012843615484
 30
0.0
 10
-762.1212531734146
 20
1136.205298417918
 30
0.0
 10
-720.9637037883738
 20
1101.397753220352
 30
0.0
 10
-697.9159997876101
 20
1017.436931251292
 30
0.0
 10
-692.5065072880586
 20
997.6813626680362
 30
0.0
 10
-687.0970147885072
 20
977.9257940847807
 30
0.0
 10
-675.5735072979011
 20
917.9540490788473
 30
0.0
 10
-674.3976954331088
 20
895.1411284902887
 30
0.0
 10
-673.2218835683165
 20
872.3282079017301
 30
0.0
 10
-672.0457271937483
 20
825.2919437025033
 30
0.0
 10
-676.7493191626935
 20
778.9603742496677
 30
0.0
 10
-681.4529111316385
 20
732.628804796832
 30
0.0
 10
-699.0918116524024
 20
665.3656826410606
 30
0.0
 10
-718.8473802356579
 20
640.90652208886
 30
0.0
 10
-738.6029488189134
 20
616.4473615366594
 30
0.0
 10
-761.1807414854911
 20
609.391629073466
 30
0.0
 10
-770.3529697562883
 20
607.745389109824
 30
0.0
 10
-779.5251980270855
 20
606.0991491461821
 30
0.0
 10
-796.22324235015
 20
609.8622294272036
 30
0.0
 10
-801.8676905167945
 20
612.2140254116761
 30
0.0
 10
-807.5121386834389
 20
614.5658213961486
 30
0.0
 10
-829.3847198389618
 20
617.6231734014517
 30
0.0
 10
-842.3196838810048
 20
618.799157521132
 30
0.0
 10
-855.2546479230477
 20
619.9751416408122
 30
0.0
 10
-1058.926415805312
 20
619.9715242881664
 30
0.0
 10
-1076.564627306524
 20
619.9715242881664
 30
0.0
  0
SPLINE
  5
7D
330
78
100
AcDbEntity
  8
\U+30EC\U+30A4\U+30E4\U+30FC 2
 62
   250
420
  2234132
370
    18
100
AcDbSpline
210
0.0
220
0.0
230
1.0
 70
     8
 71
     3
 72
    53
 73
    49
 74
     0
 42
0.0000000001
 43
0.0000000001
 40
0.0
 40
0.0
 40
0.0
 40
0.0
 40
1.0
 40
1.0
 40
1.0
 40
2.0
 40
2.0
 40
2.0
 40
3.0
 40
3.0
 40
3.0
 40
4.0
 40
4.0
 40
4.0
 40
5.0
 40
5.0
 40
5.0
 40
6.0
 40
6.0
 40
6.0
 40
7.0
 40
7.0
 40
7.0
 40
8.0
 40
8.0
 40
8.0
 40
9.0
 40
9.0
 40
9.0
 40
10.0
 40
10.0
 40
10.0
 40
11.0
 40
11.0
 40
11.0
 40
12.0
 40
12.0
 40
12.0
 40
13.0
 40
13.0
 40
13.0
 40
14.0
 40
14.0
 40
14.0
 40
15.0
 40
15.0
 40
15.0
 40
16.0
 40
16.0
 40
16.0
 40
16.0
 10
-1112.7825955262
 20
619.9749693859243
 30
0.0
 10
-1112.7825955262
 20
619.9749693859243
 30
0.0
 10
-1135.360388192778
 20
614.5658213961486
 30
0.0
 10
-1149.001252765427
 20
612.6842812556379
 30
0.0
 10
-1162.642117338076
 20
610.8027411151271
 30
0.0
 10
-1175.812381556988
 20
609.1565011514851
 30
0.0
 10
-1194.156838098582
 20
617.6231734014517
 30
0.0
 10
-1212.501294640177
 20
626.0898456514184
 30
0.0
 10
-1239.783023785475
 20
666.7767946827217
 30
0.0
 10
-1252.718332337294
 20
694.5286074170942
 30
0.0
 10
-1265.653640889113
 20
722.2804201514667
 30
0.0
 10
-1290.347757108407
 20
782.4876375891567
 30
0.0
 10
-1303.518021327318
 20
829.7598909848039
 30
0.0
 10
-1316.68828554623
 20
877.032144380451
 30
0.0
 10
-1323.038978753257
 20
921.2473902805708
 30
0.0
 10
-1323.273934420349
 20
957.230747342929
 30
0.0
 10
-1323.508890087443
 20
993.2141044052872
 30
0.0
 10
-1311.749393400416
 20
1030.37310107755
 30
0.0
 10
-1300.695797243996
 20
1049.893541738825
 30
0.0
 10
-1289.642201087576
 20
1069.413982400099
 30
0.0
 10
-1264.946362319403
 20
1112.923500024501
 30
0.0
 10
-1227.551893215384
 20
1140.204884660023
 30
0.0
 10
-1190.157424111365
 20
1167.486269295546
 30
0.0
 10
-1123.599168956872
 20
1197.119966680205
 30
0.0
 10
-1025.056626217463
 20
1200.883046961227
 30
0.0
 10
-926.5140834780547
 20
1204.646127242248
 30
0.0
 10
-862.5465418375495
 20
1188.900480194372
 30
0.0
 10
-829.3823082705313
 20
1179.71636633631
 30
0.0
 10
-814.0953759891279
 20
1175.483030211327
 30
0.0
 10
-760.4410789968567
 20
1149.531797820153
 30
0.0
 10
-740.2476384885643
 20
1120.684960763412
 30
0.0
 10
-730.3695096871608
 20
1106.573840346801
 30
0.0
 10
-710.1440297697193
 20
1071.060911383293
 30
0.0
 10
-694.1515414674853
 20
1022.612673867965
 30
0.0
 10
-678.1590531652514
 20
974.1644363526381
 30
0.0
 10
-670.3975924263394
 20
925.9509822495158
 30
0.0
 10
-668.7515247175854
 20
888.5565131454965
 30
0.0
 10
-667.1054570088313
 20
851.1620440414772
 30
0.0
 10
-669.6910028761815
 20
770.4935297448131
 30
0.0
 10
-676.0410070636565
 20
736.8619686669275
 30
0.0
 10
-682.3910112511315
 20
703.2304075890418
 30
0.0
 10
-702.6168356783488
 20
650.5488339487312
 30
0.0
 10
-712.9652203237141
 20
636.9081416309697
 30
0.0
 10
-723.3136049690794
 20
623.2674493132083
 30
0.0
 10
-748.7136217189793
 20
603.7470086519337
 30
0.0
 10
-768.2338901253661
 20
604.4525646727642
 30
0.0
 10
-787.7541585317528
 20
605.1581206935948
 30
0.0
 10
-809.1561393335382
 20
611.7434250579386
 30
0.0
 10
-814.0950314793521
 20
614.8007770632416
 30
0.0
  0
ENDBLK
  5
7B
330
78
100
AcDbEntity
  8
0
100
AcDbBlockEnd
  0
BLOCK
  5
80
330
7E
100
AcDbEntity
  8
0
100
AcDbBlockBegin
  2
block 8
 70
     0
 71
     0
 10
0.0
 20
0.0
 30
0.0
  3
block 8
  1

  0
SPLINE
  5
82
330
7E
100
AcDbEntity
  8
\U+30EC\U+30A4\U+30E4\U+30FC 2
 62
   250
420
  2234132
370
    18
100
AcDbSpline
210
0.0
220
0.0
230
1.0
 70
     8
 71
     3
 72
    23
 73
    19
 74
     0
 42
0.0000000001
 43
0.0000000001
 40
0.0
 40
0.0
 40
0.0
 40
0.0
 40
1.0
 40
1.0
 40
1.0
 40
2.0
 40
2.0
 40
2.0
 40
3.0
 40
3.0
 40
3.0
 40
4.0
 40
4.0
 40
4.0
 40
5.0
 40
5.0
 40
5.0
 40
6.0
 40
6.0
 40
6.0
 40
6.0
 10
-1319.981454493065
 20
993.2106593075293
 30
0.0
 10
-1319.981454493065
 20
993.2106593075293
 30
0.0
 10
-1365.842595847052
 20
1171.010776556829
 30
0.0
 10
-1374.309268097018
 20
1198.52746136922
 30
0.0
 10
-1382.775940346985
 20
1226.044146181612
 30
0.0
 10
-1386.303720451138
 20
1255.677499056495
 30
0.0
 10
-1385.598164430307
 20
1275.433067639751
 30
0.0
 10
-1384.892608409476
 20
1295.188636223006
 30
0.0
 10
-1381.364828305324
 20
1343.166445639484
 30
0.0
 10
-1374.309268097018
 20
1364.333126264401
 30
0.0
 10
-1367.253707888713
 20
1385.499806889317
 30
0.0
 10
-1335.503686951338
 20
1405.255375472573
 30
0.0
 10
-1304.459222034793
 20
1405.255375472573
 30
0.0
 10
-1273.414757118249
 20
1405.255375472573
 30
0.0
 10
-1244.486960264196
 20
1374.210910556028
 30
0.0
 10
-1227.553615764263
 20
1329.055325222873
 30
0.0
 10
-1210.62027126433
 20
1283.899739889717
 30
0.0
 10
-1192.981370743566
 20
1212.638581785832
 30
0.0
 10
-1187.336922576921
 20
1164.660772369354
 30
0.0
  0
SPLINE
  5
83
330
7E
100
AcDbEntity
  8
\U+30EC\U+30A4\U+30E4\U+30FC 2
 62
   250
420
  2234132
370
    18
100
AcDbSpline
210
0.0
220
0.0
230
1.0
 70
     8
 71
     3
 72
    11
 73
     7
 74
     0
 42
0.0000000001
 43
0.0000000001
 40
0.0
 40
0.0
 40
0.0
 40
0.0
 40
1.0
 40
1.0
 40
1.0
 40
2.0
 40
2.0
 40
2.0
 40
2.0
 10
-1280.268090088162
 20
1083.270682347285
 30
0.0
 10
-1280.268090088162
 20
1083.270682347285
 30
0.0
 10
-1282.913925166277
 20
1202.327404196252
 30
0.0
 10
-1295.613244521675
 20
1277.465330807172
 30
0.0
 10
-1308.312563877073
 20
1352.603257418093
 30
0.0
 10
-1325.245219357455
 20
1401.813378302593
 30
0.0
 10
-1356.993517745951
 20
1387.526557900326
 30
0.0
  0
SPLINE
  5
84
330
7E
100
AcDbEntity
  8
\U+30EC\U+30A4\U+30E4\U+30FC 2
 62
   250
420
  2234132
370
    18
100
AcDbSpline
210
0.0
220
0.0
230
1.0
 70
     8
 71
     3
 72
    11
 73
     7
 74
     0
 42
0.0000000001
 43
0.0000000001
 40
0.0
 40
0.0
 40
0.0
 40
0.0
 40
1.0
 40
1.0
 40
1.0
 40
2.0
 40
2.0
 40
2.0
 40
2.0
 10
-1342.706697343684
 20
1395.463546370006
 30
0.0
 10
-1366.517835007612
 20
1398.638376208856
 30
0.0
 10
-1388.212649118824
 20
1379.060402415023
 30
0.0
 10
-1388.741816134447
 20
1360.011251127038
 30
0.0
 10
-1389.27098315007
 20
1340.962099839052
 30
0.0
 10
-1389.27098315007
 20
1317.150962175124
 30
0.0
 10
-1383.450490487994
 20
1304.980637580461
 30
0.0
  0
ENDBLK
  5
81
330
7E
100
AcDbEntity
  8
0
100
AcDbBlockEnd
  0
BLOCK
  5
96
330
94
100
AcDbEntity
  8
0
100
AcDbBlockBegin
  2
block 9
 70
     0
 71
     0
 10
0.0
 20
0.0
 30
0.0
  3
block 9
  1

  0
POLYLINE
  5
98
330
94
100
AcDbEntity
  8
\U+30EC\U+30A4\U+30E4\U+30FC 2
 62
   250
420
  2234132
370
    18
100
AcDb2dPolyline
 66
     1
 10
0.0
 20
0.0
 30
0.0
  0
VERTEX
  5
99
330
98
100
AcDbEntity
  8
\U+30EC\U+30A4\U+30E4\U+30FC 2
 62
   250
420
  2234132
370
    18
100
AcDbVertex
100
AcDb2dVertex
 10
781.5152587469721
 20
530.7398750043128
 30
0.0
  0
VERTEX
  5
9A
330
98
100
AcDbEntity
  8
\U+30EC\U+30A4\U+30E4\U+30FC 2
 62
   250
420
  2234132
370
    18
100
AcDbVertex
100
AcDb2dVertex
 10
181.5149661617097
 20
530.7398750043128
 30
0.0
  0
VERTEX
  5
9B
330
98
100
AcDbEntity
  8
\U+30EC\U+30A4\U+30E4\U+30FC 2
 62
   250
420
  2234132
370
    18
100
AcDbVertex
100
AcDb2dVertex
 10
181.5149661617097
 20
540.7397880114603
 30
0.0
  0
VERTEX
  5
9C
330
98
100
AcDbEntity
  8
\U+30EC\U+30A4\U+30E4\U+30FC 2
 62
   250
420
  2234132
370
    18
100
AcDbVertex
100
AcDb2dVertex
 10
781.5152587469721
 20
540.7397880114603
 30
0.0
  0
VERTEX
  5
9D
330
98
100
AcDbEntity
  8
\U+30EC\U+30A4\U+30E4\U+30FC 2
 62
   250
420
  2234132
370
    18
100
AcDbVertex
100
AcDb2dVertex
 10
781.5152587469721
 20
530.7398750043128
 30
0.0
  0
SEQEND
  5
9E
330
98
100
AcDbEntity
  8
\U+30EC\U+30A4\U+30E4\U+30FC 2
370
    18
  0
SPLINE
  5
9F
330
94
100
AcDbEntity
  8
\U+30EC\U+30A4\U+30E4\U+30FC 2
 62
   250
420
  2234132
370
    18
100
AcDbSpline
210
0.0
220
0.0
230
1.0
 70
     8
 71
     3
 72
    11
 73
     7
 74
     0
 42
0.0000000001
 43
0.0000000001
 40
0.0
 40
0.0
 40
0.0
 40
0.0
 40
1.0
 40
1.0
 40
1.0
 40
2.0
 40
2.0
 40
2.0
 40
2.0
 10
201.2712237645167
 20
540.9492499551443
 30
0.0
 10
201.5061794316097
 20
542.3603619968054
 30
0.0
 10
260.5372404947317
 20
554.8252424497745
 30
0.0
 10
290.6411937233525
 20
558.2353724654929
 30
0.0
 10
298.8946144221013
 20
559.1703719970037
 30
0.0
 10
312.6936089818411
 20
559.9124460540686
 30
0.0
 10
329.5494387822202
 20
560.4970791435948
 30
0.0
  0
SPLINE
  5
A0
330
94
100
AcDbEntity
  8
\U+30EC\U+30A4\U+30E4\U+30FC 2
 62
   250
420
  2234132
370
    18
100
AcDbSpline
210
0.0
220
0.0
230
1.0
 70
     8
 71
     3
 72
    11
 73
     7
 74
     0
 42
0.0000000001
 43
0.0000000001
 40
0.0
 40
0.0
 40
0.0
 40
0.0
 40
1.0
 40
1.0
 40
1.0
 40
2.0
 40
2.0
 40
2.0
 40
2.0
 10
761.7596901637165
 20
540.9492499551443
 30
0.0
 10
761.5247344966236
 20
542.3603619968054
 30
0.0
 10
702.4936734335016
 20
554.8252424497745
 30
0.0
 10
672.3897202048809
 20
558.2353724654929
 30
0.0
 10
658.8594432702621
 20
559.7680964580101
 30
0.0
 10
630.4277404933558
 20
560.7825054928419
 30
0.0
 10
598.0576019595478
 20
561.4348347533119
 30
0.0
  0
INSERT
  5
A2
330
94
100
AcDbEntity
  8
\U+30EC\U+30A4\U+30E4\U+30FC 2
100
AcDbBlockReference
  2
block 10
 10
0.0
 20
0.0
 30
0.0
  0
INSERT
  5
D0
330
94
100
AcDbEntity
  8
\U+30EC\U+30A4\U+30E4\U+30FC 2
100
AcDbBlockReference
  2
block 13
 10
0.0
 20
0.0
 30
0.0
  0
ENDBLK
  5
97
330
94
100
AcDbEntity
  8
0
100
AcDbBlockEnd
  0
BLOCK
  5
A3
330
A1
100
AcDbEntity
  8
0
100
AcDbBlockBegin
  2
block 10
 70
     0
 71
     0
 10
0.0
 20
0.0
 30
0.0
  3
block 10
  1

  0
POLYLINE
  5
A5
330
A1
100
AcDbEntity
  8
\U+30EC\U+30A4\U+30E4\U+30FC 2
 62
   250
420
  2234132
370
    18
100
AcDb2dPolyline
 66
     1
 10
0.0
 20
0.0
 30
0.0
  0
VERTEX
  5
A6
330
A5
100
AcDbEntity
  8
\U+30EC\U+30A4\U+30E4\U+30FC 2
 62
   250
420
  2234132
370
    18
100
AcDbVertex
100
AcDb2dVertex
 10
481.5154569641167
 20
561.7014853197782
 30
0.0
  0
VERTEX
  5
A7
330
A5
100
AcDbEntity
  8
\U+30EC\U+30A4\U+30E4\U+30FC 2
 62
   250
420
  2234132
370
    18
100
AcDbVertex
100
AcDb2dVertex
 10
353.3033878233661
 20
561.7014853197782
 30
0.0
  0
SEQEND
  5
A8
330
A5
100
AcDbEntity
  8
\U+30EC\U+30A4\U+30E4\U+30FC 2
370
    18
  0
INSERT
  5
AA
330
A1
100
AcDbEntity
  8
\U+30EC\U+30A4\U+30E4\U+30FC 2
100
AcDbBlockReference
  2
block 11
 10
0.0
 20
0.0
 30
0.0
  0
ENDBLK
  5
A4
330
A1
100
AcDbEntity
  8
0
100
AcDbBlockEnd
  0
BLOCK
  5
AB
330
A9
100
AcDbEntity
  8
0
100
AcDbBlockBegin
  2
block 11
 70
     0
 71
     0
 10
0.0
 20
0.0
 30
0.0
  3
block 11
  1

  0
SPLINE
  5
AD
330
A9
100
AcDbEntity
  8
\U+30EC\U+30A4\U+30E4\U+30FC 2
 62
   250
420
  2234132
370
    18
100
AcDbSpline
210
0.0
220
0.0
230
1.0
 70
    11
 71
     3
 72
    41
 73
    37
 74
     0
 42
0.0000000001
 43
0.0000000001
 40
0.0
 40
0.0
 40
0.0
 40
0.0
 40
1.0
 40
1.0
 40
1.0
 40
2.0
 40
2.0
 40
2.0
 40
3.0
 40
3.0
 40
3.0
 40
4.0
 40
4.0
 40
4.0
 40
5.0
 40
5.0
 40
5.0
 40
6.0
 40
6.0
 40
6.0
 40
7.0
 40
7.0
 40
7.0
 40
8.0
 40
8.0
 40
8.0
 40
9.0
 40
9.0
 40
9.0
 40
10.0
 40
10.0
 40
10.0
 40
11.0
 40
11.0
 40
11.0
 40
12.0
 40
12.0
 40
12.0
 40
12.0
 10
231.5150479621108
 20
1195.232053108842
 30
0.0
 10
231.5150479621108
 20
1193.404945512907
 30
0.0
 10
231.5150479621108
 20
696.8611108541222
 30
0.0
 10
231.5150479621108
 20
623.4378093973395
 30
0.0
 10
231.5150479621108
 20
606.151514632103
 30
0.0
 10
223.1289909996805
 20
604.0348465696113
 30
0.0
 10
218.1900988538666
 20
604.0348465696113
 30
0.0
 10
216.2398290130845
 20
604.0348465696113
 30
0.0
 10
221.8677407104907
 20
604.0348465696113
 30
0.0
 10
212.1046781742031
 20
604.0348465696113
 30
0.0
 10
202.6723450226798
 20
604.0348465696113
 30
0.0
 10
195.2595281768736
 20
604.8580526788763
 30
0.0
 10
195.2595281768736
 20
604.8580526788763
 30
0.0
 10
195.2595281768736
 20
604.8580526788763
 30
0.0
 10
193.8270565291131
 20
604.3288856632535
 30
0.0
 10
192.5547819270979
 20
604.3288856632535
 30
0.0
 10
190.5397442484661
 20
604.3288856632535
 30
0.0
 10
185.9109109008688
 20
603.6820685591961
 30
0.0
 10
185.9109109008688
 20
608.326921611368
 30
0.0
 10
185.9109109008688
 20
611.2533599018685
 30
0.0
 10
155.0920998874709
 20
842.6910654193131
 30
0.0
 10
153.2789449374556
 20
1014.315672682578
 30
0.0
 10
152.2140652204697
 20
1115.092361318025
 30
0.0
 10
151.5150548853793
 20
1195.937436874785
 30
0.0
 10
151.5150548853793
 20
1195.937436874785
 30
0.0
 10
151.5150548853793
 20
1195.937436874785
 30
0.0
 10
151.8092662339092
 20
1198.465794119353
 30
0.0
 10
155.1606573328543
 20
1199.935645077787
 30
0.0
 10
156.702683089318
 20
1200.611917767675
 30
0.0
 10
159.3485181674326
 20
1199.569775695892
 30
0.0
 10
159.3485181674326
 20
1199.569775695892
 30
0.0
 10
159.3485181674326
 20
1199.569775695892
 30
0.0
 10
190.9307628439947
 20
1200.967968620961
 30
0.0
 10
192.5551264368737
 20
1200.967968620961
 30
0.0
 10
216.4851199734514
 20
1200.967968620961
 30
0.0
 10
231.5150479621108
 20
1197.201787751957
 30
0.0
 10
231.5150479621108
 20
1195.232053108842
 30
0.0
  0
SPLINE
  5
AE
330
A9
100
AcDbEntity
  8
\U+30EC\U+30A4\U+30E4\U+30FC 2
 62
   250
420
  2234132
370
    18
100
AcDbSpline
210
0.0
220
0.0
230
1.0
 70
     8
 71
     3
 72
    11
 73
     7
 74
     0
 42
0.0000000001
 43
0.0000000001
 40
0.0
 40
0.0
 40
0.0
 40
0.0
 40
1.0
 40
1.0
 40
1.0
 40
2.0
 40
2.0
 40
2.0
 40
2.0
 10
159.3485181674326
 20
1199.569775695892
 30
0.0
 10
159.3485181674326
 20
1199.569775695892
 30
0.0
 10
159.3485181674326
 20
1066.174040213624
 30
0.0
 10
159.3485181674326
 20
1016.079562734655
 30
0.0
 10
159.3485181674326
 20
965.9850852556855
 30
0.0
 10
186.9103337604535
 20
641.3705767568575
 30
0.0
 10
195.2595281768736
 20
605.0931806008572
 30
0.0
  0
SPLINE
  5
AF
330
A9
100
AcDbEntity
  8
\U+30EC\U+30A4\U+30E4\U+30FC 2
 62
   250
420
  2234132
370
    18
100
AcDbSpline
210
0.0
220
0.0
230
1.0
 70
     8
 71
     3
 72
    20
 73
    16
 74
     0
 42
0.0000000001
 43
0.0000000001
 40
0.0
 40
0.0
 40
0.0
 40
0.0
 40
1.0
 40
1.0
 40
1.0
 40
2.0
 40
2.0
 40
2.0
 40
3.0
 40
3.0
 40
3.0
 40
4.0
 40
4.0
 40
4.0
 40
5.0
 40
5.0
 40
5.0
 40
5.0
 10
481.597794800532
 20
940.8201964277664
 30
0.0
 10
481.597794800532
 20
940.8201964277664
 30
0.0
 10
265.8189198674627
 20
940.8201964277664
 30
0.0
 10
256.823425111649
 20
940.8201964277664
 30
0.0
 10
247.8279303558352
 20
940.8201964277664
 30
0.0
 10
231.4247864008522
 20
939.8059596478225
 30
0.0
 10
231.4247864008522
 20
919.1694795678562
 30
0.0
 10
231.4247864008522
 20
898.5329994878899
 30
0.0
 10
231.4247864008522
 20
660.9494118251296
 30
0.0
 10
231.4247864008522
 20
640.3129317451633
 30
0.0
 10
231.4247864008522
 20
619.676451665197
 30
0.0
 10
253.1192560022886
 20
604.331297231684
 30
0.0
 10
277.4599051916153
 20
604.331297231684
 30
0.0
 10
280.257669080856
 20
604.331297231684
 30
0.0
 10
285.1104337827208
 20
604.331297231684
 30
0.0
 10
291.5093583583588
 20
604.331297231684
 30
0.0
  0
SPLINE
  5
B0
330
A9
100
AcDbEntity
  8
\U+30EC\U+30A4\U+30E4\U+30FC 2
 62
   250
420
  2234132
370
    18
100
AcDbSpline
210
0.0
220
0.0
230
1.0
 70
     8
 71
     3
 72
    17
 73
    13
 74
     0
 42
0.0000000001
 43
0.0000000001
 40
0.0
 40
0.0
 40
0.0
 40
0.0
 40
1.0
 40
1.0
 40
1.0
 40
2.0
 40
2.0
 40
2.0
 40
3.0
 40
3.0
 40
3.0
 40
4.0
 40
4.0
 40
4.0
 40
4.0
 10
481.597794800532
 20
1021.136104968903
 30
0.0
 10
461.9597040508229
 20
1021.136104968903
 30
0.0
 10
385.0540977802926
 20
1024.546234984621
 30
0.0
 10
361.0651930720537
 20
1027.368459067944
 30
0.0
 10
337.0762883638149
 20
1030.190683151266
 30
0.0
 10
267.9317983224207
 20
1045.007359588707
 30
0.0
 10
258.0540140307929
 20
1046.418471630369
 30
0.0
 10
248.1762297391651
 20
1047.82958367203
 30
0.0
 10
231.2969732740318
 20
1045.708436982453
 30
0.0
 10
231.5956632496471
 20
1035.83513131791
 30
0.0
 10
233.5411099535681
 20
971.5542580363184
 30
0.0
 10
235.1286110004368
 20
960.4422674729009
 30
0.0
 10
236.7161120473056
 20
936.1017905384621
 30
0.0
  0
SPLINE
  5
B1
330
A9
100
AcDbEntity
  8
\U+30EC\U+30A4\U+30E4\U+30FC 2
 62
   250
420
  2234132
370
    18
100
AcDbSpline
210
0.0
220
0.0
230
1.0
 70
     8
 71
     3
 72
    17
 73
    13
 74
     0
 42
0.0000000001
 43
0.0000000001
 40
0.0
 40
0.0
 40
0.0
 40
0.0
 40
1.0
 40
1.0
 40
1.0
 40
2.0
 40
2.0
 40
2.0
 40
3.0
 40
3.0
 40
3.0
 40
4.0
 40
4.0
 40
4.0
 40
4.0
 10
481.5154569641167
 20
599.0976769726765
 30
0.0
 10
481.5154569641167
 20
599.0976769726765
 30
0.0
 10
309.3832145462157
 20
599.0976769726765
 30
0.0
 10
301.9748763274949
 20
599.0976769726765
 30
0.0
 10
294.5665381087741
 20
599.0976769726765
 30
0.0
 10
291.5155595343232
 20
610.3845062473106
 30
0.0
 10
291.5155595343232
 20
614.4416256219741
 30
0.0
 10
291.5155595343232
 20
618.4987449966377
 30
0.0
 10
298.6234852285497
 20
620.9699136184237
 30
0.0
 10
298.6234852285497
 20
620.9699136184237
 30
0.0
 10
298.6234852285497
 20
620.9699136184237
 30
0.0
 10
481.5154569641167
 20
620.9699136184237
 30
0.0
 10
481.5154569641167
 20
620.9699136184237
 30
0.0
  0
INSERT
  5
B3
330
A9
100
AcDbEntity
  8
\U+30EC\U+30A4\U+30E4\U+30FC 2
100
AcDbBlockReference
  2
block 12
 10
0.0
 20
0.0
 30
0.0
  0
SPLINE
  5
C4
330
A9
100
AcDbEntity
  8
\U+30EC\U+30A4\U+30E4\U+30FC 2
 62
   250
420
  2234132
370
    18
100
AcDbSpline
210
0.0
220
0.0
230
1.0
 70
     8
 71
     3
 72
    17
 73
    13
 74
     0
 42
0.0000000001
 43
0.0000000001
 40
0.0
 40
0.0
 40
0.0
 40
0.0
 40
1.0
 40
1.0
 40
1.0
 40
2.0
 40
2.0
 40
2.0
 40
3.0
 40
3.0
 40
3.0
 40
4.0
 40
4.0
 40
4.0
 40
4.0
 10
291.5155595343232
 20
614.4416256219741
 30
0.0
 10
291.5155595343232
 20
609.3265167258405
 30
0.0
 10
291.5155595343232
 20
594.509668033511
 30
0.0
 10
291.5155595343232
 20
590.5116320853965
 30
0.0
 10
291.5155595343232
 20
586.5135961372819
 30
0.0
 10
294.625793790211
 20
585.1024840956209
 30
0.0
 10
296.8599396862492
 20
585.1024840956209
 30
0.0
 10
299.0940855822873
 20
585.1024840956209
 30
0.0
 10
364.5929731762065
 20
585.1024840956209
 30
0.0
 10
393.0505141862974
 20
585.1024840956209
 30
0.0
 10
421.5080551963884
 20
585.1024840956209
 30
0.0
 10
481.7156171438542
 20
585.1024840956209
 30
0.0
 10
481.7156171438542
 20
585.1024840956209
 30
0.0
  0
POLYLINE
  5
C5
330
A9
100
AcDbEntity
  8
\U+30EC\U+30A4\U+30E4\U+30FC 2
 62
   250
420
  2234132
370
    18
100
AcDb2dPolyline
 66
     1
 10
0.0
 20
0.0
 30
0.0
  0
VERTEX
  5
C6
330
C5
100
AcDbEntity
  8
\U+30EC\U+30A4\U+30E4\U+30FC 2
 62
   250
420
  2234132
370
    18
100
AcDbVertex
100
AcDb2dVertex
 10
329.7268613167552
 20
561.7014853197782
 30
0.0
  0
VERTEX
  5
C7
330
C5
100
AcDbEntity
  8
\U+30EC\U+30A4\U+30E4\U+30FC 2
 62
   250
420
  2234132
370
    18
100
AcDbVertex
100
AcDb2dVertex
 10
271.5153890102524
 20
561.7014853197782
 30
0.0
  0
VERTEX
  5
C8
330
C5
100
AcDbEntity
  8
\U+30EC\U+30A4\U+30E4\U+30FC 2
 62
   250
420
  2234132
370
    18
100
AcDbVertex
100
AcDb2dVertex
 10
271.5153890102524
 20
604.6813191638929
 30
0.0
  0
SEQEND
  5
C9
330
C5
100
AcDbEntity
  8
\U+30EC\U+30A4\U+30E4\U+30FC 2
370
    18
  0
SPLINE
  5
CA
330
A9
100
AcDbEntity
  8
\U+30EC\U+30A4\U+30E4\U+30FC 2
 62
   250
420
  2234132
370
    18
100
AcDbSpline
210
0.0
220
0.0
230
1.0
 70
     8
 71
     3
 72
    35
 73
    31
 74
     0
 42
0.0000000001
 43
0.0000000001
 40
0.0
 40
0.0
 40
0.0
 40
0.0
 40
1.0
 40
1.0
 40
1.0
 40
2.0
 40
2.0
 40
2.0
 40
3.0
 40
3.0
 40
3.0
 40
4.0
 40
4.0
 40
4.0
 40
5.0
 40
5.0
 40
5.0
 40
6.0
 40
6.0
 40
6.0
 40
7.0
 40
7.0
 40
7.0
 40
8.0
 40
8.0
 40
8.0
 40
9.0
 40
9.0
 40
9.0
 40
10.0
 40
10.0
 40
10.0
 40
10.0
 10
244.6484496350124
 20
1046.65359955235
 30
0.0
 10
244.6484496350124
 20
1046.65359955235
 30
0.0
 10
244.8837498118812
 20
1095.572265166526
 30
0.0
 10
244.6484496350124
 20
1119.090741775916
 30
0.0
 10
244.4131494581436
 20
1142.609218385305
 30
0.0
 10
233.1242531248547
 20
1191.998139843444
 30
0.0
 10
228.1853609790408
 20
1208.225928322546
 30
0.0
 10
223.246468833227
 20
1224.453716801649
 30
0.0
 10
214.3105742686259
 20
1235.037573878771
 30
0.0
 10
210.3125383205114
 20
1273.37289918049
 30
0.0
 10
206.3145023723969
 20
1311.708224482208
 30
0.0
 10
210.0775826534184
 20
1342.282605809679
 30
0.0
 10
218.7795550802538
 20
1363.684414356576
 30
0.0
 10
227.4815275070893
 20
1385.086222903474
 30
0.0
 10
246.2965844024212
 20
1405.54734750756
 30
0.0
 10
275.6946371004357
 20
1405.54734750756
 30
0.0
 10
305.0926897984502
 20
1405.54734750756
 30
0.0
 10
363.1832391736486
 20
1391.20092691408
 30
0.0
 10
367.6518754755007
 20
1390.260242971269
 30
0.0
 10
372.1205117773528
 20
1389.319559028457
 30
0.0
 10
378.470171455052
 20
1384.615794804624
 30
0.0
 10
379.6463278296201
 20
1378.736218715999
 30
0.0
 10
380.8224842041882
 20
1372.856642627374
 30
0.0
 10
381.527695715243
 20
1340.165765492299
 30
0.0
 10
384.3499197985652
 20
1325.349089054858
 30
0.0
 10
387.1721438818874
 20
1310.532412617416
 30
0.0
 10
396.8142834868706
 20
1296.891892554543
 30
0.0
 10
414.2182283405414
 20
1290.306588190199
 30
0.0
 10
431.6221731942123
 20
1283.721283825855
 30
0.0
 10
454.9055218816206
 20
1279.958375799721
 30
0.0
 10
481.4813504963128
 20
1279.958375799721
 30
0.0
  0
SPLINE
  5
CB
330
A9
100
AcDbEntity
  8
\U+30EC\U+30A4\U+30E4\U+30FC 2
 62
   250
420
  2234132
370
    18
100
AcDbSpline
210
0.0
220
0.0
230
1.0
 70
     8
 71
     3
 72
    14
 73
    10
 74
     0
 42
0.0000000001
 43
0.0000000001
 40
0.0
 40
0.0
 40
0.0
 40
0.0
 40
1.0
 40
1.0
 40
1.0
 40
2.0
 40
2.0
 40
2.0
 40
3.0
 40
3.0
 40
3.0
 40
3.0
 10
481.7166506731816
 20
1397.315803179574
 30
0.0
 10
474.4257902880073
 20
1397.315803179574
 30
0.0
 10
400.577708277668
 20
1397.786231278424
 30
0.0
 10
398.2257400383075
 20
1397.786231278424
 30
0.0
 10
395.8737717989471
 20
1397.786231278424
 30
0.0
 10
392.3459916947943
 20
1398.256659377274
 30
0.0
 10
391.8757358508325
 20
1395.669563215932
 30
0.0
 10
391.4054800068707
 20
1393.082467054591
 30
0.0
 10
393.7571037364554
 20
1308.180444378056
 30
0.0
 10
397.5201840174769
 20
1300.654628325788
 30
0.0
  0
SPLINE
  5
CC
330
A9
100
AcDbEntity
  8
\U+30EC\U+30A4\U+30E4\U+30FC 2
 62
   250
420
  2234132
370
    18
100
AcDbSpline
210
0.0
220
0.0
230
1.0
 70
     8
 71
     3
 72
     8
 73
     4
 74
     0
 42
0.0000000001
 43
0.0000000001
 40
0.0
 40
0.0
 40
0.0
 40
0.0
 40
1.0
 40
1.0
 40
1.0
 40
1.0
 10
391.6404356739637
 20
1391.67135501293
 30
0.0
 10
386.7015435281498
 20
1390.025115049288
 30
0.0
 10
380.1169281833577
 20
1384.380666882643
 30
0.0
 10
379.6463278296201
 20
1378.736218715999
 30
0.0
  0
SPLINE
  5
CD
330
A9
100
AcDbEntity
  8
\U+30EC\U+30A4\U+30E4\U+30FC 2
 62
   250
420
  2234132
370
    18
100
AcDbSpline
210
0.0
220
0.0
230
1.0
 70
     8
 71
     3
 72
    14
 73
    10
 74
     0
 42
0.0000000001
 43
0.0000000001
 40
0.0
 40
0.0
 40
0.0
 40
0.0
 40
1.0
 40
1.0
 40
1.0
 40
2.0
 40
2.0
 40
2.0
 40
3.0
 40
3.0
 40
3.0
 40
3.0
 10
233.3595533017235
 20
1187.176897786064
 30
0.0
 10
243.2373375933513
 20
1192.468567942293
 30
0.0
 10
250.2928978016568
 20
1195.996348046446
 30
0.0
 10
259.8179040828693
 20
1195.643570036031
 30
0.0
 10
269.3429103640818
 20
1195.290792025615
 30
0.0
 10
331.4318401971705
 20
1186.824119775649
 30
0.0
 10
361.7707490928843
 20
1181.885227629835
 30
0.0
 10
392.1096579885981
 20
1176.946335484021
 30
0.0
 10
445.7319155717202
 20
1173.418555379868
 30
0.0
 10
482.0680506444937
 20
1173.418555379868
 30
0.0
  0
SPLINE
  5
CE
330
A9
100
AcDbEntity
  8
\U+30EC\U+30A4\U+30E4\U+30FC 2
 62
   250
420
  2234132
370
    18
100
AcDbSpline
210
0.0
220
0.0
230
1.0
 70
     8
 71
     3
 72
    11
 73
     7
 74
     0
 42
0.0000000001
 43
0.0000000001
 40
0.0
 40
0.0
 40
0.0
 40
0.0
 40
1.0
 40
1.0
 40
1.0
 40
2.0
 40
2.0
 40
2.0
 40
2.0
 10
280.9845847077859
 20
1404.84093021229
 30
0.0
 10
274.9873585307262
 20
1388.613141733187
 30
0.0
 10
264.4040182182679
 20
1349.807560587507
 30
0.0
 10
267.5790203120054
 20
1308.885311379335
 30
0.0
 10
270.7540224057428
 20
1267.963062171162
 30
0.0
 10
304.6207114056094
 20
1202.699130244336
 30
0.0
 10
319.7901658534664
 20
1188.23523181731
 30
0.0
  0
ENDBLK
  5
AC
330
A9
100
AcDbEntity
  8
0
100
AcDbBlockEnd
  0
BLOCK
  5
B4
330
B2
100
AcDbEntity
  8
0
100
AcDbBlockBegin
  2
block 12
 70
     0
 71
     0
 10
0.0
 20
0.0
 30
0.0
  3
block 12
  1

  0
POLYLINE
  5
B6
330
B2
100
AcDbEntity
  8
\U+30EC\U+30A4\U+30E4\U+30FC 2
 62
   250
420
  2234132
370
    18
100
AcDb2dPolyline
 66
     1
 10
0.0
 20
0.0
 30
0.0
  0
VERTEX
  5
B7
330
B6
100
AcDbEntity
  8
\U+30EC\U+30A4\U+30E4\U+30FC 2
 62
   250
420
  2234132
370
    18
100
AcDbVertex
100
AcDb2dVertex
 10
353.2668697871317
 20
545.2196208810258
 30
0.0
  0
VERTEX
  5
B8
330
B6
100
AcDbEntity
  8
\U+30EC\U+30A4\U+30E4\U+30FC 2
 62
   250
420
  2234132
370
    18
100
AcDbVertex
100
AcDb2dVertex
 10
329.6300540697565
 20
545.2197931359136
 30
0.0
  0
VERTEX
  5
B9
330
B6
100
AcDbEntity
  8
\U+30EC\U+30A4\U+30E4\U+30FC 2
 62
   250
420
  2234132
370
    18
100
AcDbVertex
100
AcDb2dVertex
 10
329.6303985795323
 20
584.992240967366
 30
0.0
  0
VERTEX
  5
BA
330
B6
100
AcDbEntity
  8
\U+30EC\U+30A4\U+30E4\U+30FC 2
 62
   250
420
  2234132
370
    18
100
AcDbVertex
100
AcDb2dVertex
 10
353.2672142969075
 20
584.9918964575902
 30
0.0
  0
VERTEX
  5
BB
330
B6
100
AcDbEntity
  8
\U+30EC\U+30A4\U+30E4\U+30FC 2
 62
   250
420
  2234132
370
    18
100
AcDbVertex
100
AcDb2dVertex
 10
353.2668697871317
 20
545.2196208810258
 30
0.0
  0
SEQEND
  5
BC
330
B6
100
AcDbEntity
  8
\U+30EC\U+30A4\U+30E4\U+30FC 2
370
    18
  0
POLYLINE
  5
BD
330
B2
100
AcDbEntity
  8
\U+30EC\U+30A4\U+30E4\U+30FC 2
 62
   250
420
  2234132
370
    18
100
AcDb2dPolyline
 66
     1
 10
0.0
 20
0.0
 30
0.0
  0
VERTEX
  5
BE
330
BD
100
AcDbEntity
  8
\U+30EC\U+30A4\U+30E4\U+30FC 2
 62
   250
420
  2234132
370
    18
100
AcDbVertex
100
AcDb2dVertex
 10
359.5627859398066
 20
531.1544925194835
 30
0.0
  0
VERTEX
  5
BF
330
BD
100
AcDbEntity
  8
\U+30EC\U+30A4\U+30E4\U+30FC 2
 62
   250
420
  2234132
370
    18
100
AcDbVertex
100
AcDb2dVertex
 10
322.9913506901643
 20
531.1544925194835
 30
0.0
  0
VERTEX
  5
C0
330
BD
100
AcDbEntity
  8
\U+30EC\U+30A4\U+30E4\U+30FC 2
 62
   250
420
  2234132
370
    18
100
AcDbVertex
100
AcDb2dVertex
 10
322.9913506901643
 20
545.0304850141137
 30
0.0
  0
VERTEX
  5
C1
330
BD
100
AcDbEntity
  8
\U+30EC\U+30A4\U+30E4\U+30FC 2
 62
   250
420
  2234132
370
    18
100
AcDbVertex
100
AcDb2dVertex
 10
359.5627859398066
 20
545.0303127592257
 30
0.0
  0
VERTEX
  5
C2
330
BD
100
AcDbEntity
  8
\U+30EC\U+30A4\U+30E4\U+30FC 2
 62
   250
420
  2234132
370
    18
100
AcDbVertex
100
AcDb2dVertex
 10
359.5627859398066
 20
531.1544925194835
 30
0.0
  0
SEQEND
  5
C3
330
BD
100
AcDbEntity
  8
\U+30EC\U+30A4\U+30E4\U+30FC 2
370
    18
  0
ENDBLK
  5
B5
330
B2
100
AcDbEntity
  8
0
100
AcDbBlockEnd
  0
BLOCK
  5
D1
330
CF
100
AcDbEntity
  8
0
100
AcDbBlockBegin
  2
block 13
 70
     0
 71
     0
 10
0.0
 20
0.0
 30
0.0
  3
block 13
  1

  0
POLYLINE
  5
D3
330
CF
100
AcDbEntity
  8
\U+30EC\U+30A4\U+30E4\U+30FC 2
 62
   250
420
  2234132
370
    18
100
AcDb2dPolyline
 66
     1
 10
0.0
 20
0.0
 30
0.0
  0
VERTEX
  5
D4
330
D3
100
AcDbEntity
  8
\U+30EC\U+30A4\U+30E4\U+30FC 2
 62
   250
420
  2234132
370
    18
100
AcDbVertex
100
AcDb2dVertex
 10
480.8333276080402
 20
561.7014853197782
 30
0.0
  0
VERTEX
  5
D5
330
D3
100
AcDbEntity
  8
\U+30EC\U+30A4\U+30E4\U+30FC 2
 62
   250
420
  2234132
370
    18
100
AcDbVertex
100
AcDb2dVertex
 10
610.2801197852443
 20
561.7014853197782
 30
0.0
  0
SEQEND
  5
D6
330
D3
100
AcDbEntity
  8
\U+30EC\U+30A4\U+30E4\U+30FC 2
370
    18
  0
INSERT
  5
D8
330
CF
100
AcDbEntity
  8
\U+30EC\U+30A4\U+30E4\U+30FC 2
100
AcDbBlockReference
  2
block 14
 10
0.0
 20
0.0
 30
0.0
  0
ENDBLK
  5
D2
330
CF
100
AcDbEntity
  8
0
100
AcDbBlockEnd
  0
BLOCK
  5
D9
330
D7
100
AcDbEntity
  8
0
100
AcDbBlockBegin
  2
block 14
 70
     0
 71
     0
 10
0.0
 20
0.0
 30
0.0
  3
block 14
  1

  0
SPLINE
  5
DB
330
D7
100
AcDbEntity
  8
\U+30EC\U+30A4\U+30E4\U+30FC 2
 62
   250
420
  2234132
370
    18
100
AcDbSpline
210
0.0
220
0.0
230
1.0
 70
    11
 71
     3
 72
    41
 73
    37
 74
     0
 42
0.0000000001
 43
0.0000000001
 40
0.0
 40
0.0
 40
0.0
 40
0.0
 40
1.0
 40
1.0
 40
1.0
 40
2.0
 40
2.0
 40
2.0
 40
3.0
 40
3.0
 40
3.0
 40
4.0
 40
4.0
 40
4.0
 40
5.0
 40
5.0
 40
5.0
 40
6.0
 40
6.0
 40
6.0
 40
7.0
 40
7.0
 40
7.0
 40
8.0
 40
8.0
 40
8.0
 40
9.0
 40
9.0
 40
9.0
 40
10.0
 40
10.0
 40
10.0
 40
11.0
 40
11.0
 40
11.0
 40
12.0
 40
12.0
 40
12.0
 40
12.0
 10
732.0684596464996
 20
1195.232053108842
 30
0.0
 10
732.0684596464996
 20
1193.404945512907
 30
0.0
 10
732.0684596464996
 20
696.8611108541222
 30
0.0
 10
732.0684596464996
 20
623.4378093973395
 30
0.0
 10
732.0684596464996
 20
606.151514632103
 30
0.0
 10
740.4545166089299
 20
604.0348465696113
 30
0.0
 10
745.3934087547437
 20
604.0348465696113
 30
0.0
 10
747.343678595526
 20
604.0348465696113
 30
0.0
 10
741.7157668981197
 20
604.0348465696113
 30
0.0
 10
751.4788294344073
 20
604.0348465696113
 30
0.0
 10
760.9111625859306
 20
604.0348465696113
 30
0.0
 10
768.3239794317368
 20
604.8580526788763
 30
0.0
 10
768.3239794317368
 20
604.8580526788763
 30
0.0
 10
768.3239794317368
 20
604.8580526788763
 30
0.0
 10
769.7564510794972
 20
604.3288856632535
 30
0.0
 10
771.0287256815125
 20
604.3288856632535
 30
0.0
 10
773.0437633601443
 20
604.3288856632535
 30
0.0
 10
777.6725967077416
 20
603.6820685591961
 30
0.0
 10
777.6725967077416
 20
608.326921611368
 30
0.0
 10
777.6725967077416
 20
611.2533599018685
 30
0.0
 10
808.4914077211395
 20
842.6910654193131
 30
0.0
 10
810.3045626711547
 20
1014.315672682578
 30
0.0
 10
811.3694423881407
 20
1115.092361318025
 30
0.0
 10
812.0684527232311
 20
1195.937436874785
 30
0.0
 10
812.0684527232311
 20
1195.937436874785
 30
0.0
 10
812.0684527232311
 20
1195.937436874785
 30
0.0
 10
811.7742413747012
 20
1198.465794119353
 30
0.0
 10
808.4228502757561
 20
1199.935645077787
 30
0.0
 10
806.8808245192924
 20
1200.611917767675
 30
0.0
 10
804.2349894411778
 20
1199.569775695892
 30
0.0
 10
804.2349894411778
 20
1199.569775695892
 30
0.0
 10
804.2349894411778
 20
1199.569775695892
 30
0.0
 10
772.6527447646156
 20
1200.967968620961
 30
0.0
 10
771.0283811717367
 20
1200.967968620961
 30
0.0
 10
747.098387635159
 20
1200.967968620961
 30
0.0
 10
732.0684596464996
 20
1197.201787751957
 30
0.0
 10
732.0684596464996
 20
1195.232053108842
 30
0.0
  0
SPLINE
  5
DC
330
D7
100
AcDbEntity
  8
\U+30EC\U+30A4\U+30E4\U+30FC 2
 62
   250
420
  2234132
370
    18
100
AcDbSpline
210
0.0
220
0.0
230
1.0
 70
     8
 71
     3
 72
    11
 73
     7
 74
     0
 42
0.0000000001
 43
0.0000000001
 40
0.0
 40
0.0
 40
0.0
 40
0.0
 40
1.0
 40
1.0
 40
1.0
 40
2.0
 40
2.0
 40
2.0
 40
2.0
 10
804.2349894411778
 20
1199.569775695892
 30
0.0
 10
804.2349894411778
 20
1199.569775695892
 30
0.0
 10
804.2349894411778
 20
1066.174040213624
 30
0.0
 10
804.2349894411778
 20
1016.079562734655
 30
0.0
 10
804.2349894411778
 20
965.9850852556855
 30
0.0
 10
776.6731738481569
 20
641.3705767568575
 30
0.0
 10
768.3239794317368
 20
605.0931806008572
 30
0.0
  0
SPLINE
  5
DD
330
D7
100
AcDbEntity
  8
\U+30EC\U+30A4\U+30E4\U+30FC 2
 62
   250
420
  2234132
370
    18
100
AcDbSpline
210
0.0
220
0.0
230
1.0
 70
     8
 71
     3
 72
    20
 73
    16
 74
     0
 42
0.0000000001
 43
0.0000000001
 40
0.0
 40
0.0
 40
0.0
 40
0.0
 40
1.0
 40
1.0
 40
1.0
 40
2.0
 40
2.0
 40
2.0
 40
3.0
 40
3.0
 40
3.0
 40
4.0
 40
4.0
 40
4.0
 40
5.0
 40
5.0
 40
5.0
 40
5.0
 10
481.9857128080785
 20
940.8201964277664
 30
0.0
 10
481.9857128080785
 20
940.8201964277664
 30
0.0
 10
697.7645877411477
 20
940.8201964277664
 30
0.0
 10
706.7600824969614
 20
940.8201964277664
 30
0.0
 10
715.7555772527752
 20
940.8201964277664
 30
0.0
 10
732.1587212077582
 20
939.8059596478225
 30
0.0
 10
732.1587212077582
 20
919.1694795678562
 30
0.0
 10
732.1587212077582
 20
898.5329994878899
 30
0.0
 10
732.1587212077582
 20
660.9494118251296
 30
0.0
 10
732.1587212077582
 20
640.3129317451633
 30
0.0
 10
732.1587212077582
 20
619.676451665197
 30
0.0
 10
710.4642516063218
 20
604.331297231684
 30
0.0
 10
686.1236024169951
 20
604.331297231684
 30
0.0
 10
683.3258385277544
 20
604.331297231684
 30
0.0
 10
678.4730738258896
 20
604.331297231684
 30
0.0
 10
672.0741492502515
 20
604.331297231684
 30
0.0
  0
SPLINE
  5
DE
330
D7
100
AcDbEntity
  8
\U+30EC\U+30A4\U+30E4\U+30FC 2
 62
   250
420
  2234132
370
    18
100
AcDbSpline
210
0.0
220
0.0
230
1.0
 70
     8
 71
     3
 72
    17
 73
    13
 74
     0
 42
0.0000000001
 43
0.0000000001
 40
0.0
 40
0.0
 40
0.0
 40
0.0
 40
1.0
 40
1.0
 40
1.0
 40
2.0
 40
2.0
 40
2.0
 40
3.0
 40
3.0
 40
3.0
 40
4.0
 40
4.0
 40
4.0
 40
4.0
 10
481.9857128080785
 20
1021.136104968903
 30
0.0
 10
501.6238035577874
 20
1021.136104968903
 30
0.0
 10
578.5294098283179
 20
1024.546234984621
 30
0.0
 10
602.5183145365567
 20
1027.368459067944
 30
0.0
 10
626.5072192447955
 20
1030.190683151266
 30
0.0
 10
695.6517092861898
 20
1045.007359588707
 30
0.0
 10
705.5294935778174
 20
1046.418471630369
 30
0.0
 10
715.4072778694452
 20
1047.82958367203
 30
0.0
 10
732.2865343345785
 20
1045.708436982453
 30
0.0
 10
731.9878443589632
 20
1035.83513131791
 30
0.0
 10
730.0423976550424
 20
971.5542580363184
 30
0.0
 10
728.4548966081735
 20
960.4422674729009
 30
0.0
 10
726.8673955613048
 20
936.1017905384621
 30
0.0
  0
SPLINE
  5
DF
330
D7
100
AcDbEntity
  8
\U+30EC\U+30A4\U+30E4\U+30FC 2
 62
   250
420
  2234132
370
    18
100
AcDbSpline
210
0.0
220
0.0
230
1.0
 70
     8
 71
     3
 72
    17
 73
    13
 74
     0
 42
0.0000000001
 43
0.0000000001
 40
0.0
 40
0.0
 40
0.0
 40
0.0
 40
1.0
 40
1.0
 40
1.0
 40
2.0
 40
2.0
 40
2.0
 40
3.0
 40
3.0
 40
3.0
 40
4.0
 40
4.0
 40
4.0
 40
4.0
 10
481.3183973723612
 20
599.0976769726765
 30
0.0
 10
481.3183973723612
 20
599.0976769726765
 30
0.0
 10
654.2002930623947
 20
599.0976769726765
 30
0.0
 10
661.6086312811155
 20
599.0976769726765
 30
0.0
 10
669.0169694998364
 20
599.0976769726765
 30
0.0
 10
672.0679480742872
 20
610.3845062473106
 30
0.0
 10
672.0679480742872
 20
614.4416256219741
 30
0.0
 10
672.0679480742872
 20
618.4987449966377
 30
0.0
 10
664.9600223800606
 20
620.9699136184237
 30
0.0
 10
664.9600223800606
 20
620.9699136184237
 30
0.0
 10
664.9600223800606
 20
620.9699136184237
 30
0.0
 10
481.3955675621396
 20
620.9699136184237
 30
0.0
 10
481.3955675621396
 20
620.9699136184237
 30
0.0
  0
INSERT
  5
E1
330
D7
100
AcDbEntity
  8
\U+30EC\U+30A4\U+30E4\U+30FC 2
100
AcDbBlockReference
  2
block 15
 10
0.0
 20
0.0
 30
0.0
  0
SPLINE
  5
F2
330
D7
100
AcDbEntity
  8
\U+30EC\U+30A4\U+30E4\U+30FC 2
 62
   250
420
  2234132
370
    18
100
AcDbSpline
210
0.0
220
0.0
230
1.0
 70
     8
 71
     3
 72
    17
 73
    13
 74
     0
 42
0.0000000001
 43
0.0000000001
 40
0.0
 40
0.0
 40
0.0
 40
0.0
 40
1.0
 40
1.0
 40
1.0
 40
2.0
 40
2.0
 40
2.0
 40
3.0
 40
3.0
 40
3.0
 40
4.0
 40
4.0
 40
4.0
 40
4.0
 10
672.0679480742872
 20
614.4416256219741
 30
0.0
 10
672.0679480742872
 20
609.3265167258405
 30
0.0
 10
672.0679480742872
 20
594.509668033511
 30
0.0
 10
672.0679480742872
 20
590.5116320853965
 30
0.0
 10
672.0679480742872
 20
586.5135961372819
 30
0.0
 10
668.9577138183994
 20
585.1024840956209
 30
0.0
 10
666.7235679223612
 20
585.1024840956209
 30
0.0
 10
664.489422026323
 20
585.1024840956209
 30
0.0
 10
598.9905344324038
 20
585.1024840956209
 30
0.0
 10
570.532993422313
 20
585.1024840956209
 30
0.0
 10
542.075452412222
 20
585.1024840956209
 30
0.0
 10
481.8678904647562
 20
585.1024840956209
 30
0.0
 10
481.8678904647562
 20
585.1024840956209
 30
0.0
  0
POLYLINE
  5
F3
330
D7
100
AcDbEntity
  8
\U+30EC\U+30A4\U+30E4\U+30FC 2
 62
   250
420
  2234132
370
    18
100
AcDb2dPolyline
 66
     1
 10
0.0
 20
0.0
 30
0.0
  0
VERTEX
  5
F4
330
F3
100
AcDbEntity
  8
\U+30EC\U+30A4\U+30E4\U+30FC 2
 62
   250
420
  2234132
370
    18
100
AcDbVertex
100
AcDb2dVertex
 10
633.8566462918551
 20
561.7014853197782
 30
0.0
  0
VERTEX
  5
F5
330
F3
100
AcDbEntity
  8
\U+30EC\U+30A4\U+30E4\U+30FC 2
 62
   250
420
  2234132
370
    18
100
AcDbVertex
100
AcDb2dVertex
 10
692.068118598358
 20
561.7014853197782
 30
0.0
  0
VERTEX
  5
F6
330
F3
100
AcDbEntity
  8
\U+30EC\U+30A4\U+30E4\U+30FC 2
 62
   250
420
  2234132
370
    18
100
AcDbVertex
100
AcDb2dVertex
 10
692.068118598358
 20
604.6813191638929
 30
0.0
  0
SEQEND
  5
F7
330
F3
100
AcDbEntity
  8
\U+30EC\U+30A4\U+30E4\U+30FC 2
370
    18
  0
SPLINE
  5
F8
330
D7
100
AcDbEntity
  8
\U+30EC\U+30A4\U+30E4\U+30FC 2
 62
   250
420
  2234132
370
    18
100
AcDbSpline
210
0.0
220
0.0
230
1.0
 70
     8
 71
     3
 72
    35
 73
    31
 74
     0
 42
0.0000000001
 43
0.0000000001
 40
0.0
 40
0.0
 40
0.0
 40
0.0
 40
1.0
 40
1.0
 40
1.0
 40
2.0
 40
2.0
 40
2.0
 40
3.0
 40
3.0
 40
3.0
 40
4.0
 40
4.0
 40
4.0
 40
5.0
 40
5.0
 40
5.0
 40
6.0
 40
6.0
 40
6.0
 40
7.0
 40
7.0
 40
7.0
 40
8.0
 40
8.0
 40
8.0
 40
9.0
 40
9.0
 40
9.0
 40
10.0
 40
10.0
 40
10.0
 40
10.0
 10
718.935057973598
 20
1046.65359955235
 30
0.0
 10
718.935057973598
 20
1046.65359955235
 30
0.0
 10
718.6997577967293
 20
1095.572265166526
 30
0.0
 10
718.935057973598
 20
1119.090741775916
 30
0.0
 10
719.1703581504668
 20
1142.609218385305
 30
0.0
 10
730.4592544837557
 20
1191.998139843444
 30
0.0
 10
735.3981466295695
 20
1208.225928322546
 30
0.0
 10
740.3370387753835
 20
1224.453716801649
 30
0.0
 10
749.2729333399844
 20
1235.037573878771
 30
0.0
 10
753.270969288099
 20
1273.37289918049
 30
0.0
 10
757.2690052362135
 20
1311.708224482208
 30
0.0
 10
753.505924955192
 20
1342.282605809679
 30
0.0
 10
744.8039525283565
 20
1363.684414356576
 30
0.0
 10
736.1019801015211
 20
1385.086222903474
 30
0.0
 10
717.2869232061892
 20
1405.54734750756
 30
0.0
 10
687.8888705081747
 20
1405.54734750756
 30
0.0
 10
658.4908178101601
 20
1405.54734750756
 30
0.0
 10
600.4002684349618
 20
1391.20092691408
 30
0.0
 10
595.9316321331097
 20
1390.260242971269
 30
0.0
 10
591.4629958312576
 20
1389.319559028457
 30
0.0
 10
585.1133361535584
 20
1384.615794804624
 30
0.0
 10
583.9371797789903
 20
1378.736218715999
 30
0.0
 10
582.7610234044222
 20
1372.856642627374
 30
0.0
 10
582.0558118933674
 20
1340.165765492299
 30
0.0
 10
579.2335878100452
 20
1325.349089054858
 30
0.0
 10
576.4113637267229
 20
1310.532412617416
 30
0.0
 10
566.7692241217397
 20
1296.891892554543
 30
0.0
 10
549.3652792680689
 20
1290.306588190199
 30
0.0
 10
531.961334414398
 20
1283.721283825855
 30
0.0
 10
508.6779857269898
 20
1279.958375799721
 30
0.0
 10
482.1021571122976
 20
1279.958375799721
 30
0.0
  0
SPLINE
  5
F9
330
D7
100
AcDbEntity
  8
\U+30EC\U+30A4\U+30E4\U+30FC 2
 62
   250
420
  2234132
370
    18
100
AcDbSpline
210
0.0
220
0.0
230
1.0
 70
     8
 71
     3
 72
    14
 73
    10
 74
     0
 42
0.0000000001
 43
0.0000000001
 40
0.0
 40
0.0
 40
0.0
 40
0.0
 40
1.0
 40
1.0
 40
1.0
 40
2.0
 40
2.0
 40
2.0
 40
3.0
 40
3.0
 40
3.0
 40
3.0
 10
481.8668569354288
 20
1397.315803179574
 30
0.0
 10
489.1577173206031
 20
1397.315803179574
 30
0.0
 10
563.0057993309424
 20
1397.786231278424
 30
0.0
 10
565.3577675703029
 20
1397.786231278424
 30
0.0
 10
567.7097358096634
 20
1397.786231278424
 30
0.0
 10
571.2375159138161
 20
1398.256659377274
 30
0.0
 10
571.7077717577779
 20
1395.669563215932
 30
0.0
 10
572.1780276017396
 20
1393.082467054591
 30
0.0
 10
569.826403872155
 20
1308.180444378056
 30
0.0
 10
566.0633235911334
 20
1300.654628325788
 30
0.0
  0
SPLINE
  5
FA
330
D7
100
AcDbEntity
  8
\U+30EC\U+30A4\U+30E4\U+30FC 2
 62
   250
420
  2234132
370
    18
100
AcDbSpline
210
0.0
220
0.0
230
1.0
 70
     8
 71
     3
 72
     8
 73
     4
 74
     0
 42
0.0000000001
 43
0.0000000001
 40
0.0
 40
0.0
 40
0.0
 40
0.0
 40
1.0
 40
1.0
 40
1.0
 40
1.0
 10
571.9430719346467
 20
1391.67135501293
 30
0.0
 10
576.8819640804605
 20
1390.025115049288
 30
0.0
 10
583.4665794252527
 20
1384.380666882643
 30
0.0
 10
583.9371797789903
 20
1378.736218715999
 30
0.0
  0
SPLINE
  5
FB
330
D7
100
AcDbEntity
  8
\U+30EC\U+30A4\U+30E4\U+30FC 2
 62
   250
420
  2234132
370
    18
100
AcDbSpline
210
0.0
220
0.0
230
1.0
 70
     8
 71
     3
 72
    14
 73
    10
 74
     0
 42
0.0000000001
 43
0.0000000001
 40
0.0
 40
0.0
 40
0.0
 40
0.0
 40
1.0
 40
1.0
 40
1.0
 40
2.0
 40
2.0
 40
2.0
 40
3.0
 40
3.0
 40
3.0
 40
3.0
 10
730.2239543068869
 20
1187.176897786064
 30
0.0
 10
720.3461700152591
 20
1192.468567942293
 30
0.0
 10
713.2906098069536
 20
1195.996348046446
 30
0.0
 10
703.7656035257411
 20
1195.643570036031
 30
0.0
 10
694.2405972445287
 20
1195.290792025615
 30
0.0
 10
632.1516674114399
 20
1186.824119775649
 30
0.0
 10
601.812758515726
 20
1181.885227629835
 30
0.0
 10
571.4738496200123
 20
1176.946335484021
 30
0.0
 10
517.8515920368902
 20
1173.418555379868
 30
0.0
 10
481.5154569641167
 20
1173.418555379868
 30
0.0
  0
SPLINE
  5
FC
330
D7
100
AcDbEntity
  8
\U+30EC\U+30A4\U+30E4\U+30FC 2
 62
   250
420
  2234132
370
    18
100
AcDbSpline
210
0.0
220
0.0
230
1.0
 70
     8
 71
     3
 72
    11
 73
     7
 74
     0
 42
0.0000000001
 43
0.0000000001
 40
0.0
 40
0.0
 40
0.0
 40
0.0
 40
1.0
 40
1.0
 40
1.0
 40
2.0
 40
2.0
 40
2.0
 40
2.0
 10
682.5989229008245
 20
1404.84093021229
 30
0.0
 10
688.5961490778842
 20
1388.613141733187
 30
0.0
 10
699.1794893903425
 20
1349.807560587507
 30
0.0
 10
696.004487296605
 20
1308.885311379335
 30
0.0
 10
692.8294852028675
 20
1267.963062171162
 30
0.0
 10
658.962796203001
 20
1202.699130244336
 30
0.0
 10
643.7933417551441
 20
1188.23523181731
 30
0.0
  0
ENDBLK
  5
DA
330
D7
100
AcDbEntity
  8
0
100
AcDbBlockEnd
  0
BLOCK
  5
E2
330
E0
100
AcDbEntity
  8
0
100
AcDbBlockBegin
  2
block 15
 70
     0
 71
     0
 10
0.0
 20
0.0
 30
0.0
  3
block 15
  1

  0
POLYLINE
  5
E4
330
E0
100
AcDbEntity
  8
\U+30EC\U+30A4\U+30E4\U+30FC 2
 62
   250
420
  2234132
370
    18
100
AcDb2dPolyline
 66
     1
 10
0.0
 20
0.0
 30
0.0
  0
VERTEX
  5
E5
330
E4
100
AcDbEntity
  8
\U+30EC\U+30A4\U+30E4\U+30FC 2
 62
   250
420
  2234132
370
    18
100
AcDbVertex
100
AcDb2dVertex
 10
610.3166378214787
 20
545.2196208810258
 30
0.0
  0
VERTEX
  5
E6
330
E4
100
AcDbEntity
  8
\U+30EC\U+30A4\U+30E4\U+30FC 2
 62
   250
420
  2234132
370
    18
100
AcDbVertex
100
AcDb2dVertex
 10
633.9534535388539
 20
545.2197931359136
 30
0.0
  0
VERTEX
  5
E7
330
E4
100
AcDbEntity
  8
\U+30EC\U+30A4\U+30E4\U+30FC 2
 62
   250
420
  2234132
370
    18
100
AcDbVertex
100
AcDb2dVertex
 10
633.9531090290781
 20
584.992240967366
 30
0.0
  0
VERTEX
  5
E8
330
E4
100
AcDbEntity
  8
\U+30EC\U+30A4\U+30E4\U+30FC 2
 62
   250
420
  2234132
370
    18
100
AcDbVertex
100
AcDb2dVertex
 10
610.3162933117029
 20
584.9918964575902
 30
0.0
  0
VERTEX
  5
E9
330
E4
100
AcDbEntity
  8
\U+30EC\U+30A4\U+30E4\U+30FC 2
 62
   250
420
  2234132
370
    18
100
AcDbVertex
100
AcDb2dVertex
 10
610.3166378214787
 20
545.2196208810258
 30
0.0
  0
SEQEND
  5
EA
330
E4
100
AcDbEntity
  8
\U+30EC\U+30A4\U+30E4\U+30FC 2
370
    18
  0
POLYLINE
  5
EB
330
E0
100
AcDbEntity
  8
\U+30EC\U+30A4\U+30E4\U+30FC 2
 62
   250
420
  2234132
370
    18
100
AcDb2dPolyline
 66
     1
 10
0.0
 20
0.0
 30
0.0
  0
VERTEX
  5
EC
330
EB
100
AcDbEntity
  8
\U+30EC\U+30A4\U+30E4\U+30FC 2
 62
   250
420
  2234132
370
    18
100
AcDbVertex
100
AcDb2dVertex
 10
604.0207216688037
 20
531.1544925194835
 30
0.0
  0
VERTEX
  5
ED
330
EB
100
AcDbEntity
  8
\U+30EC\U+30A4\U+30E4\U+30FC 2
 62
   250
420
  2234132
370
    18
100
AcDbVertex
100
AcDb2dVertex
 10
640.592156918446
 20
531.1544925194835
 30
0.0
  0
VERTEX
  5
EE
330
EB
100
AcDbEntity
  8
\U+30EC\U+30A4\U+30E4\U+30FC 2
 62
   250
420
  2234132
370
    18
100
AcDbVertex
100
AcDb2dVertex
 10
640.592156918446
 20
545.0304850141137
 30
0.0
  0
VERTEX
  5
EF
330
EB
100
AcDbEntity
  8
\U+30EC\U+30A4\U+30E4\U+30FC 2
 62
   250
420
  2234132
370
    18
100
AcDbVertex
100
AcDb2dVertex
 10
604.0207216688037
 20
545.0303127592257
 30
0.0
  0
VERTEX
  5
F0
330
EB
100
AcDbEntity
  8
\U+30EC\U+30A4\U+30E4\U+30FC 2
 62
   250
420
  2234132
370
    18
100
AcDbVertex
100
AcDb2dVertex
 10
604.0207216688037
 20
531.1544925194835
 30
0.0
  0
SEQEND
  5
F1
330
EB
100
AcDbEntity
  8
\U+30EC\U+30A4\U+30E4\U+30FC 2
370
    18
  0
ENDBLK
  5
E3
330
E0
100
AcDbEntity
  8
0
100
AcDbBlockEnd
  0
BLOCK
  5
FF
330
FD
100
AcDbEntity
  8
0
100
AcDbBlockBegin
  2
block 16
 70
     0
 71
     0
 10
0.0
 20
0.0
 30
0.0
  3
block 16
  1

  0
INSERT
  5
102
330
FD
100
AcDbEntity
  8
\U+30EC\U+30A4\U+30E4\U+30FC 2
100
AcDbBlockReference
  2
block 17
 10
0.0
 20
0.0
 30
0.0
  0
SPLINE
  5
19E
330
FD
100
AcDbEntity
  8
\U+30EC\U+30A4\U+30E4\U+30FC 2
  6
AI-Linetype-9
 62
   250
420
  2234132
370
    18
100
AcDbSpline
210
0.0
220
0.0
230
1.0
 70
     8
 71
     3
 72
    14
 73
    10
 74
     0
 42
0.0000000001
 43
0.0000000001
 40
0.0
 40
0.0
 40
0.0
 40
0.0
 40
1.0
 40
1.0
 40
1.0
 40
2.0
 40
2.0
 40
2.0
 40
3.0
 40
3.0
 40
3.0
 40
3.0
 10
-1502.235049614082
 20
271.4437309768868
 30
0.0
 10
-1502.235049614082
 20
271.4437309768868
 30
0.0
 10
-1502.128768348249
 20
321.1251412346765
 30
0.0
 10
-1502.128768348249
 20
325.0056993492445
 30
0.0
 10
-1502.128768348249
 20
328.8862574638126
 30
0.0
 10
-1502.481546358664
 20
332.7668155783807
 30
0.0
 10
-1497.54265421285
 20
332.7668155783807
 30
0.0
 10
-1492.603762067037
 20
332.7668155783807
 30
0.0
 10
-1270.706393515827
 20
332.7668155783807
 30
0.0
 10
-1270.706393515827
 20
332.7668155783807
 30
0.0
  0
ENDBLK
  5
100
330
FD
100
AcDbEntity
  8
0
100
AcDbBlockEnd
  0
BLOCK
  5
103
330
101
100
AcDbEntity
  8
0
100
AcDbBlockBegin
  2
block 17
 70
     0
 71
     0
 10
0.0
 20
0.0
 30
0.0
  3
block 17
  1

  0
SPLINE
  5
105
330
101
100
AcDbEntity
  8
\U+30EC\U+30A4\U+30E4\U+30FC 2
 62
   250
420
  2234132
370
    18
100
AcDbSpline
210
0.0
220
0.0
230
1.0
 70
     8
 71
     3
 72
    32
 73
    28
 74
     0
 42
0.0000000001
 43
0.0000000001
 40
0.0
 40
0.0
 40
0.0
 40
0.0
 40
1.0
 40
1.0
 40
1.0
 40
2.0
 40
2.0
 40
2.0
 40
3.0
 40
3.0
 40
3.0
 40
4.0
 40
4.0
 40
4.0
 40
5.0
 40
5.0
 40
5.0
 40
6.0
 40
6.0
 40
6.0
 40
7.0
 40
7.0
 40
7.0
 40
8.0
 40
8.0
 40
8.0
 40
9.0
 40
9.0
 40
9.0
 40
9.0
 10
-1274.702706915063
 20
285.8035874516227
 30
0.0
 10
-1274.799858671837
 20
288.0444512882889
 30
0.0
 10
-1274.853946706638
 20
290.3290678664812
 30
0.0
 10
-1274.853946706638
 20
292.6383168936429
 30
0.0
 10
-1274.853946706638
 20
310.6272393466156
 30
0.0
 10
-1272.031722623315
 20
328.1531406609183
 30
0.0
 10
-1272.031722623315
 20
328.8642088381616
 30
0.0
 10
-1272.031722623315
 20
330.3414667567756
 30
0.0
 10
-1271.364751697374
 20
333.3326728851258
 30
0.0
 10
-1268.108445296549
 20
333.3326728851258
 30
0.0
 10
-1214.547165943742
 20
333.3326728851258
 30
0.0
 10
-633.3240341784742
 20
333.3326728851258
 30
0.0
 10
-631.752725091068
 20
333.3326728851258
 30
0.0
 10
-630.1056238529865
 20
333.3326728851258
 30
0.0
 10
-628.5181228061177
 20
332.4727764847386
 30
0.0
 10
-628.9887231598552
 20
328.9449963805858
 30
0.0
 10
-629.1203258942094
 20
327.9583203827056
 30
0.0
 10
-624.7898380124516
 20
311.9308643382283
 30
0.0
 10
-624.7898380124516
 20
293.7848454274925
 30
0.0
 10
-624.7898380124516
 20
278.2905182610598
 30
0.0
 10
-626.886524507947
 20
262.5198942544386
 30
0.0
 10
-627.9651846159649
 20
256.1259650705496
 30
0.0
 10
-628.2621520427011
 20
254.3655201162312
 30
0.0
 10
-629.5475180161967
 20
253.3326798083943
 30
0.0
 10
-631.1646469037838
 20
253.3326798083943
 30
0.0
 10
-632.2756909307266
 20
253.3326798083943
 30
0.0
 10
-934.0355931581246
 20
253.3326798083943
 30
0.0
 10
-1122.808691276308
 20
253.3326798083943
 30
0.0
  0
POLYLINE
  5
106
330
101
100
AcDbEntity
  8
\U+30EC\U+30A4\U+30E4\U+30FC 2
 62
   250
420
  2234132
370
    18
100
AcDb2dPolyline
 66
     1
 10
0.0
 20
0.0
 30
0.0
  0
VERTEX
  5
107
330
106
100
AcDbEntity
  8
\U+30EC\U+30A4\U+30E4\U+30FC 2
 62
   250
420
  2234132
370
    18
100
AcDbVertex
100
AcDb2dVertex
 10
-628.9298119881942
 20
328.8862574638126
 30
0.0
  0
VERTEX
  5
108
330
106
100
AcDbEntity
  8
\U+30EC\U+30A4\U+30E4\U+30FC 2
 62
   250
420
  2234132
370
    18
100
AcDbVertex
100
AcDb2dVertex
 10
-1272.018975761611
 20
328.8862574638126
 30
0.0
  0
SEQEND
  5
109
330
106
100
AcDbEntity
  8
\U+30EC\U+30A4\U+30E4\U+30FC 2
370
    18
  0
INSERT
  5
10B
330
101
100
AcDbEntity
  8
\U+30EC\U+30A4\U+30E4\U+30FC 2
100
AcDbBlockReference
  2
block 18
 10
0.0
 20
0.0
 30
0.0
  0
INSERT
  5
118
330
101
100
AcDbEntity
  8
\U+30EC\U+30A4\U+30E4\U+30FC 2
100
AcDbBlockReference
  2
block 19
 10
0.0
 20
0.0
 30
0.0
  0
SPLINE
  5
120
330
101
100
AcDbEntity
  8
\U+30EC\U+30A4\U+30E4\U+30FC 2
 62
   250
420
  2234132
370
    18
100
AcDbSpline
210
0.0
220
0.0
230
1.0
 70
     8
 71
     3
 72
    14
 73
    10
 74
     0
 42
0.0000000001
 43
0.0000000001
 40
0.0
 40
0.0
 40
0.0
 40
0.0
 40
1.0
 40
1.0
 40
1.0
 40
2.0
 40
2.0
 40
2.0
 40
3.0
 40
3.0
 40
3.0
 40
3.0
 10
-659.8598996591742
 20
248.3352210006951
 30
0.0
 10
-659.8598996591742
 20
248.3352210006951
 30
0.0
 10
-621.638607093244
 20
253.7445412453586
 30
0.0
 10
-617.0521484480696
 20
232.577860620442
 30
0.0
 10
-612.4653452931194
 20
211.4111799955254
 30
0.0
 10
-608.9375651889667
 20
163.4333705790477
 30
0.0
 10
-608.9375651889667
 20
133.4472396937492
 30
0.0
 10
-608.9375651889667
 20
103.4611088084506
 30
0.0
 10
-608.9375651889667
 20
2.213819819266181
 30
0.0
 10
-608.9375651889667
 20
2.213819819266181
 30
0.0
  0
SPLINE
  5
121
330
101
100
AcDbEntity
  8
\U+30EC\U+30A4\U+30E4\U+30FC 2
 62
   250
420
  2234132
370
    18
100
AcDbSpline
210
0.0
220
0.0
230
1.0
 70
     8
 71
     3
 72
    14
 73
    10
 74
     0
 42
0.0000000001
 43
0.0000000001
 40
0.0
 40
0.0
 40
0.0
 40
0.0
 40
1.0
 40
1.0
 40
1.0
 40
2.0
 40
2.0
 40
2.0
 40
3.0
 40
3.0
 40
3.0
 40
3.0
 10
-611.6423114387424
 20
193.5369792978927
 30
0.0
 10
-611.6423114387424
 20
193.5369792978927
 30
0.0
 10
-435.7063365862759
 20
193.5369792978927
 30
0.0
 10
-407.8341176852626
 20
193.5369792978927
 30
0.0
 10
-379.9622432940252
 20
193.5369792978927
 30
0.0
 10
-358.7934956104538
 20
180.0139370685657
 30
0.0
 10
-348.2091217686681
 20
151.086140214513
 30
0.0
 10
-337.6247479268824
 20
122.1583433604603
 30
0.0
 10
-328.8042641371731
 20
68.53608577733824
 30
0.0
 10
-328.8042641371731
 20
3.977709871342566
 30
0.0
  0
SPLINE
  5
122
330
101
100
AcDbEntity
  8
\U+30EC\U+30A4\U+30E4\U+30FC 2
 62
   250
420
  2234132
370
    18
100
AcDbSpline
210
0.0
220
0.0
230
1.0
 70
     8
 71
     3
 72
    14
 73
    10
 74
     0
 42
0.0000000001
 43
0.0000000001
 40
0.0
 40
0.0
 40
0.0
 40
0.0
 40
1.0
 40
1.0
 40
1.0
 40
2.0
 40
2.0
 40
2.0
 40
3.0
 40
3.0
 40
3.0
 40
3.0
 10
-659.8598996591742
 20
-242.7884413554889
 30
0.0
 10
-659.8598996591742
 20
-242.7884413554889
 30
0.0
 10
-621.638607093244
 20
-248.1979338550403
 30
0.0
 10
-617.0521484480696
 20
-227.0312532301237
 30
0.0
 10
-612.4653452931194
 20
-205.8645726052071
 30
0.0
 10
-608.9375651889667
 20
-157.8867631887294
 30
0.0
 10
-608.9375651889667
 20
-127.9006323034309
 30
0.0
 10
-608.9375651889667
 20
-97.91450141813233
 30
0.0
 10
-608.9375651889667
 20
3.332787571052137
 30
0.0
 10
-608.9375651889667
 20
3.332787571052137
 30
0.0
  0
INSERT
  5
124
330
101
100
AcDbEntity
  8
\U+30EC\U+30A4\U+30E4\U+30FC 2
100
AcDbBlockReference
  2
block 20
 10
0.0
 20
0.0
 30
0.0
  0
INSERT
  5
12D
330
101
100
AcDbEntity
  8
\U+30EC\U+30A4\U+30E4\U+30FC 2
100
AcDbBlockReference
  2
block 21
 10
0.0
 20
0.0
 30
0.0
  0
INSERT
  5
13A
330
101
100
AcDbEntity
  8
\U+30EC\U+30A4\U+30E4\U+30FC 2
100
AcDbBlockReference
  2
block 22
 10
0.0
 20
0.0
 30
0.0
  0
POLYLINE
  5
15F
330
101
100
AcDbEntity
  8
\U+30EC\U+30A4\U+30E4\U+30FC 2
 62
   250
420
  2234132
370
    18
100
AcDb2dPolyline
 66
     1
 10
0.0
 20
0.0
 30
0.0
  0
VERTEX
  5
160
330
15F
100
AcDbEntity
  8
\U+30EC\U+30A4\U+30E4\U+30FC 2
 62
   250
420
  2234132
370
    18
100
AcDbVertex
100
AcDb2dVertex
 10
-370.4362034834853
 20
3.332787571052137
 30
0.0
  0
VERTEX
  5
161
330
15F
100
AcDbEntity
  8
\U+30EC\U+30A4\U+30E4\U+30FC 2
 62
   250
420
  2234132
370
    18
100
AcDbVertex
100
AcDb2dVertex
 10
-370.4362034834853
 20
3.332787571052137
 30
0.0
  0
SEQEND
  5
162
330
15F
100
AcDbEntity
  8
\U+30EC\U+30A4\U+30E4\U+30FC 2
370
    18
  0
INSERT
  5
164
330
101
100
AcDbEntity
  8
\U+30EC\U+30A4\U+30E4\U+30FC 2
100
AcDbBlockReference
  2
block 23
 10
0.0
 20
0.0
 30
0.0
  0
SPLINE
  5
189
330
101
100
AcDbEntity
  8
\U+30EC\U+30A4\U+30E4\U+30FC 2
 62
   250
420
  2234132
370
    18
100
AcDbSpline
210
0.0
220
0.0
230
1.0
 70
     8
 71
     3
 72
    32
 73
    28
 74
     0
 42
0.0000000001
 43
0.0000000001
 40
0.0
 40
0.0
 40
0.0
 40
0.0
 40
1.0
 40
1.0
 40
1.0
 40
2.0
 40
2.0
 40
2.0
 40
3.0
 40
3.0
 40
3.0
 40
4.0
 40
4.0
 40
4.0
 40
5.0
 40
5.0
 40
5.0
 40
6.0
 40
6.0
 40
6.0
 40
7.0
 40
7.0
 40
7.0
 40
8.0
 40
8.0
 40
8.0
 40
9.0
 40
9.0
 40
9.0
 40
9.0
 10
-1274.702362405287
 20
-279.123542898935
 30
0.0
 10
-1274.799514162062
 20
-281.3694021273502
 30
0.0
 10
-1274.853946706638
 20
-283.6590140972916
 30
0.0
 10
-1274.853946706638
 20
-285.9734307710902
 30
0.0
 10
-1274.853946706638
 20
-303.962353224063
 30
0.0
 10
-1272.031722623315
 20
-321.4882545383657
 30
0.0
 10
-1272.031722623315
 20
-322.199322715609
 30
0.0
 10
-1272.031722623315
 20
-323.6765806342229
 30
0.0
 10
-1271.364751697374
 20
-326.6676145076852
 30
0.0
 10
-1268.108445296549
 20
-326.6676145076852
 30
0.0
 10
-1214.547165943742
 20
-326.6676145076852
 30
0.0
 10
-633.3240341784742
 20
-326.6676145076852
 30
0.0
 10
-631.752725091068
 20
-326.6676145076852
 30
0.0
 10
-630.1056238529865
 20
-326.6676145076852
 30
0.0
 10
-628.5181228061177
 20
-325.807718107298
 30
0.0
 10
-628.9887231598552
 20
-322.2799380031453
 30
0.0
 10
-629.1203258942094
 20
-321.293262005265
 30
0.0
 10
-624.7898380124516
 20
-305.2659782156757
 30
0.0
 10
-624.7898380124516
 20
-287.1199593049399
 30
0.0
 10
-624.7898380124516
 20
-271.6252876287314
 30
0.0
 10
-626.886524507947
 20
-255.8550081318859
 30
0.0
 10
-627.9651846159649
 20
-249.4609066931091
 30
0.0
 10
-628.2621520427011
 20
-247.7004617387906
 30
0.0
 10
-629.5475180161967
 20
-246.6676214309537
 30
0.0
 10
-631.1646469037838
 20
-246.6676214309537
 30
0.0
 10
-632.2746574013992
 20
-246.6676214309537
 30
0.0
 10
-933.5350204538927
 20
-246.6676214309537
 30
0.0
 10
-1122.338435432346
 20
-246.6676214309537
 30
0.0
  0
POLYLINE
  5
18A
330
101
100
AcDbEntity
  8
\U+30EC\U+30A4\U+30E4\U+30FC 2
 62
   250
420
  2234132
370
    18
100
AcDb2dPolyline
 66
     1
 10
0.0
 20
0.0
 30
0.0
  0
VERTEX
  5
18B
330
18A
100
AcDbEntity
  8
\U+30EC\U+30A4\U+30E4\U+30FC 2
 62
   250
420
  2234132
370
    18
100
AcDbVertex
100
AcDb2dVertex
 10
-628.9298119881942
 20
-322.2213713412599
 30
0.0
  0
VERTEX
  5
18C
330
18A
100
AcDbEntity
  8
\U+30EC\U+30A4\U+30E4\U+30FC 2
 62
   250
420
  2234132
370
    18
100
AcDbVertex
100
AcDb2dVertex
 10
-1272.018975761611
 20
-322.2213713412599
 30
0.0
  0
SEQEND
  5
18D
330
18A
100
AcDbEntity
  8
\U+30EC\U+30A4\U+30E4\U+30FC 2
370
    18
  0
INSERT
  5
18F
330
101
100
AcDbEntity
  8
\U+30EC\U+30A4\U+30E4\U+30FC 2
100
AcDbBlockReference
  2
block 24
 10
0.0
 20
0.0
 30
0.0
  0
ENDBLK
  5
104
330
101
100
AcDbEntity
  8
0
100
AcDbBlockEnd
  0
BLOCK
  5
10C
330
10A
100
AcDbEntity
  8
0
100
AcDbBlockBegin
  2
block 18
 70
     0
 71
     0
 10
0.0
 20
0.0
 30
0.0
  3
block 18
  1

  0
SPLINE
  5
10E
330
10A
100
AcDbEntity
  8
\U+30EC\U+30A4\U+30E4\U+30FC 2
 62
   250
420
  2234132
370
    18
100
AcDbSpline
210
0.0
220
0.0
230
1.0
 70
     8
 71
     3
 72
    32
 73
    28
 74
     0
 42
0.0000000001
 43
0.0000000001
 40
0.0
 40
0.0
 40
0.0
 40
0.0
 40
1.0
 40
1.0
 40
1.0
 40
2.0
 40
2.0
 40
2.0
 40
3.0
 40
3.0
 40
3.0
 40
4.0
 40
4.0
 40
4.0
 40
5.0
 40
5.0
 40
5.0
 40
6.0
 40
6.0
 40
6.0
 40
7.0
 40
7.0
 40
7.0
 40
8.0
 40
8.0
 40
8.0
 40
9.0
 40
9.0
 40
9.0
 40
9.0
 10
-1078.001749836258
 20
241.9264778964468
 30
0.0
 10
-1078.001749836258
 20
243.8667569537309
 30
0.0
 10
-1088.409734672836
 20
247.7473150682989
 30
0.0
 10
-1097.053484947562
 20
249.5112051203753
 30
0.0
 10
-1105.697235222288
 20
251.2750951724517
 30
0.0
 10
-1135.215866341831
 20
252.2157791152631
 30
0.0
 10
-1155.090979817288
 20
265.0334375786475
 30
0.0
 10
-1162.361169615914
 20
269.7220433723454
 30
0.0
 10
-1194.429862095901
 20
288.3167862660558
 30
0.0
 10
-1240.295482076972
 20
288.3167862660558
 30
0.0
 10
-1286.161102058044
 20
288.3167862660558
 30
0.0
 10
-1310.857888228099
 20
278.9681689900509
 30
0.0
 10
-1324.264658408095
 20
248.2764820839218
 30
0.0
 10
-1337.671600842979
 20
217.5847951777927
 30
0.0
 10
-1356.723508209171
 20
165.726427646747
 30
0.0
 10
-1357.958231245624
 20
156.3778103707422
 30
0.0
 10
-1359.193126536966
 20
147.0291930947373
 30
0.0
 10
-1355.312223912622
 20
139.2680768656012
 30
0.0
 10
-1349.490869976106
 20
139.0916878603936
 30
0.0
 10
-1343.669343784703
 20
138.915298855186
 30
0.0
 10
-1270.108669054821
 20
131.2039642886524
 30
0.0
 10
-1254.760758543102
 20
127.2736245114818
 30
0.0
 10
-1229.133709850952
 20
120.7110577923406
 30
0.0
 10
-1219.832290414231
 20
108.0117384369423
 30
0.0
 10
-1219.832290414231
 20
88.29165436059374
 30
0.0
 10
-1219.832290414231
 20
78.94303708458891
 30
0.0
 10
-1219.832290414231
 20
3.272153850512012
 30
0.0
 10
-1219.832290414231
 20
3.272153850512012
 30
0.0
  0
SPLINE
  5
10F
330
10A
100
AcDbEntity
  8
\U+30EC\U+30A4\U+30E4\U+30FC 2
 62
   250
420
  2234132
370
    18
100
AcDbSpline
210
0.0
220
0.0
230
1.0
 70
     8
 71
     3
 72
    20
 73
    16
 74
     0
 42
0.0000000001
 43
0.0000000001
 40
0.0
 40
0.0
 40
0.0
 40
0.0
 40
1.0
 40
1.0
 40
1.0
 40
2.0
 40
2.0
 40
2.0
 40
3.0
 40
3.0
 40
3.0
 40
4.0
 40
4.0
 40
4.0
 40
5.0
 40
5.0
 40
5.0
 40
5.0
 10
-1389.123274583697
 20
3.213242678850867
 30
0.0
 10
-1389.123274583697
 20
7.329100970287696
 30
0.0
 10
-1387.947290464017
 20
75.59164598564378
 30
0.0
 10
-1387.594512453602
 20
85.46943027727153
 30
0.0
 10
-1387.241734443186
 20
95.34721456889928
 30
0.0
 10
-1385.65406114143
 20
107.5180559282263
 30
0.0
 10
-1385.301283131015
 20
109.8111129959256
 30
0.0
 10
-1384.948505120599
 20
112.1041700636249
 30
0.0
 10
-1383.360831818843
 20
113.1625040948708
 30
0.0
 10
-1380.714652230952
 20
113.6916711104937
 30
0.0
 10
-1378.06864489795
 20
114.2208381261166
 30
0.0
 10
-1350.72559301256
 20
116.1611171834006
 30
0.0
 10
-1319.14886049241
 20
114.044449120909
 30
0.0
 10
-1287.572214099705
 20
111.9277810584173
 30
0.0
 10
-1223.184026022952
 20
104.8722208501118
 30
0.0
 10
-1220.361457429854
 20
95.52360357410691
 30
0.0
  0
SPLINE
  5
110
330
10A
100
AcDbEntity
  8
\U+30EC\U+30A4\U+30E4\U+30FC 2
 62
   250
420
  2234132
370
    18
100
AcDbSpline
210
0.0
220
0.0
230
1.0
 70
     8
 71
     3
 72
    11
 73
     7
 74
     0
 42
0.0000000001
 43
0.0000000001
 40
0.0
 40
0.0
 40
0.0
 40
0.0
 40
1.0
 40
1.0
 40
1.0
 40
2.0
 40
2.0
 40
2.0
 40
2.0
 10
-1380.714652230952
 20
113.6916711104937
 30
0.0
 10
-1380.714652230952
 20
113.6916711104937
 30
0.0
 10
-1379.303540189291
 20
125.5097344594055
 30
0.0
 10
-1376.304582590986
 20
128.684736553143
 30
0.0
 10
-1373.30562499268
 20
131.8597386468804
 30
0.0
 10
-1363.60336843182
 20
139.2680768656012
 30
0.0
 10
-1348.432363689972
 20
138.915298855186
 30
0.0
  0
SPLINE
  5
111
330
10A
100
AcDbEntity
  8
\U+30EC\U+30A4\U+30E4\U+30FC 2
 62
   250
420
  2234132
370
    18
100
AcDbSpline
210
0.0
220
0.0
230
1.0
 70
     8
 71
     3
 72
    14
 73
    10
 74
     0
 42
0.0000000001
 43
0.0000000001
 40
0.0
 40
0.0
 40
0.0
 40
0.0
 40
1.0
 40
1.0
 40
1.0
 40
2.0
 40
2.0
 40
2.0
 40
3.0
 40
3.0
 40
3.0
 40
3.0
 10
-1378.421422908365
 20
123.0402883864985
 30
0.0
 10
-1378.421422908365
 20
123.0402883864985
 30
0.0
 10
-1370.659617659677
 20
126.5680684906513
 30
0.0
 10
-1360.251632823099
 20
126.5680684906513
 30
0.0
 10
-1349.843647986521
 20
126.5680684906513
 30
0.0
 10
-1313.856673571517
 20
126.215290480236
 30
0.0
 10
-1284.926034511814
 20
122.334732365668
 30
0.0
 10
-1255.995481579555
 20
118.4541742510999
 30
0.0
 10
-1232.356943313301
 20
113.515282105286
 30
0.0
 10
-1225.300694085444
 20
108.9291679698874
 30
0.0
  0
SPLINE
  5
112
330
10A
100
AcDbEntity
  8
\U+30EC\U+30A4\U+30E4\U+30FC 2
 62
   250
420
  2234132
370
    18
100
AcDbSpline
210
0.0
220
0.0
230
1.0
 70
     8
 71
     3
 72
    14
 73
    10
 74
     0
 42
0.0000000001
 43
0.0000000001
 40
0.0
 40
0.0
 40
0.0
 40
0.0
 40
1.0
 40
1.0
 40
1.0
 40
2.0
 40
2.0
 40
2.0
 40
3.0
 40
3.0
 40
3.0
 40
3.0
 10
-1385.477672136222
 20
106.4597218969805
 30
0.0
 10
-1385.477672136222
 20
106.4597218969805
 30
0.0
 10
-1352.666044324732
 20
110.6930580219638
 30
0.0
 10
-1327.440005011609
 20
108.9291679698874
 30
0.0
 10
-1302.213965698486
 20
107.1652779178111
 30
0.0
 10
-1270.637147050892
 20
103.6374978136583
 30
0.0
 10
-1257.230204616009
 20
101.344440745959
 30
0.0
 10
-1243.823606690901
 20
99.0513836782597
 30
0.0
 10
-1224.06597104899
 20
95.17082556369165
 30
0.0
 10
-1220.185068424647
 20
90.05554441267013
 30
0.0
  0
POLYLINE
  5
113
330
10A
100
AcDbEntity
  8
\U+30EC\U+30A4\U+30E4\U+30FC 2
 62
   250
420
  2234132
370
    18
100
AcDb2dPolyline
 66
     1
 10
0.0
 20
0.0
 30
0.0
  0
VERTEX
  5
114
330
113
100
AcDbEntity
  8
\U+30EC\U+30A4\U+30E4\U+30FC 2
 62
   250
420
  2234132
370
    18
100
AcDbVertex
100
AcDb2dVertex
 10
-1122.808691276308
 20
3.44854285571965
 30
0.0
  0
VERTEX
  5
115
330
113
100
AcDbEntity
  8
\U+30EC\U+30A4\U+30E4\U+30FC 2
 62
   250
420
  2234132
370
    18
100
AcDbVertex
100
AcDb2dVertex
 10
-1122.808691276308
 20
253.3917632349433
 30
0.0
  0
SEQEND
  5
116
330
113
100
AcDbEntity
  8
\U+30EC\U+30A4\U+30E4\U+30FC 2
370
    18
  0
ENDBLK
  5
10D
330
10A
100
AcDbEntity
  8
0
100
AcDbBlockEnd
  0
BLOCK
  5
119
330
117
100
AcDbEntity
  8
0
100
AcDbBlockBegin
  2
block 19
 70
     0
 71
     0
 10
0.0
 20
0.0
 30
0.0
  3
block 19
  1

  0
SPLINE
  5
11B
330
117
100
AcDbEntity
  8
\U+30EC\U+30A4\U+30E4\U+30FC 2
 62
   250
420
  2234132
370
    18
100
AcDbSpline
210
0.0
220
0.0
230
1.0
 70
     8
 71
     3
 72
    23
 73
    19
 74
     0
 42
0.0000000001
 43
0.0000000001
 40
0.0
 40
0.0
 40
0.0
 40
0.0
 40
1.0
 40
1.0
 40
1.0
 40
2.0
 40
2.0
 40
2.0
 40
3.0
 40
3.0
 40
3.0
 40
4.0
 40
4.0
 40
4.0
 40
5.0
 40
5.0
 40
5.0
 40
6.0
 40
6.0
 40
6.0
 40
6.0
 10
-1077.906320628363
 20
3.332787571052137
 30
0.0
 10
-1077.906320628363
 20
3.332787571052137
 30
0.0
 10
-1077.906320628363
 20
241.2207496207284
 30
0.0
 10
-1077.906320628363
 20
244.5723129745614
 30
0.0
 10
-1077.906320628363
 20
250.3931501464135
 30
0.0
 10
-1074.826403232745
 20
253.3328520632822
 30
0.0
 10
-1067.417375994472
 20
253.3328520632822
 30
0.0
 10
-1016.034776463801
 20
253.3328520632822
 30
0.0
 10
-669.5978129818287
 20
253.3328520632822
 30
0.0
 10
-666.3280706997473
 20
253.3328520632822
 30
0.0
 10
-662.7999460858186
 20
253.3328520632822
 30
0.0
 10
-659.125060307401
 20
249.9521776333944
 30
0.0
 10
-656.3906862169067
 20
239.1042538131246
 30
0.0
 10
-655.528378248089
 20
235.6832717394687
 30
0.0
 10
-637.8629504745887
 20
177.1911962205798
 30
0.0
 10
-637.8629504745887
 20
115.1026108972669
 30
0.0
 10
-637.8629504745887
 20
53.01385331906605
 30
0.0
 10
-637.8629504745887
 20
3.332787571052137
 30
0.0
 10
-637.8629504745887
 20
3.332787571052137
 30
0.0
  0
POLYLINE
  5
11C
330
117
100
AcDbEntity
  8
\U+30EC\U+30A4\U+30E4\U+30FC 2
 62
   250
420
  2234132
370
    18
100
AcDb2dPolyline
 66
     1
 10
0.0
 20
0.0
 30
0.0
  0
VERTEX
  5
11D
330
11C
100
AcDbEntity
  8
\U+30EC\U+30A4\U+30E4\U+30FC 2
 62
   250
420
  2234132
370
    18
100
AcDbVertex
100
AcDb2dVertex
 10
-788.636275812679
 20
3.389631684058505
 30
0.0
  0
VERTEX
  5
11E
330
11C
100
AcDbEntity
  8
\U+30EC\U+30A4\U+30E4\U+30FC 2
 62
   250
420
  2234132
370
    18
100
AcDbVertex
100
AcDb2dVertex
 10
-788.636275812679
 20
253.2594714810376
 30
0.0
  0
SEQEND
  5
11F
330
11C
100
AcDbEntity
  8
\U+30EC\U+30A4\U+30E4\U+30FC 2
370
    18
  0
ENDBLK
  5
11A
330
117
100
AcDbEntity
  8
0
100
AcDbBlockEnd
  0
BLOCK
  5
125
330
123
100
AcDbEntity
  8
0
100
AcDbBlockBegin
  2
block 20
 70
     0
 71
     0
 10
0.0
 20
0.0
 30
0.0
  3
block 20
  1

  0
SPLINE
  5
127
330
123
100
AcDbEntity
  8
\U+30EC\U+30A4\U+30E4\U+30FC 2
 62
   250
420
  2234132
370
    18
100
AcDbSpline
210
0.0
220
0.0
230
1.0
 70
     8
 71
     3
 72
    23
 73
    19
 74
     0
 42
0.0000000001
 43
0.0000000001
 40
0.0
 40
0.0
 40
0.0
 40
0.0
 40
1.0
 40
1.0
 40
1.0
 40
2.0
 40
2.0
 40
2.0
 40
3.0
 40
3.0
 40
3.0
 40
4.0
 40
4.0
 40
4.0
 40
5.0
 40
5.0
 40
5.0
 40
6.0
 40
6.0
 40
6.0
 40
6.0
 10
-1077.906320628363
 20
3.332787571052137
 30
0.0
 10
-1077.906320628363
 20
3.332787571052137
 30
0.0
 10
-1077.906320628363
 20
-234.555346733512
 30
0.0
 10
-1077.906320628363
 20
-237.9067378324571
 30
0.0
 10
-1077.906320628363
 20
-243.7275750043092
 30
0.0
 10
-1074.826403232745
 20
-246.6672769211779
 30
0.0
 10
-1067.417375994472
 20
-246.6672769211779
 30
0.0
 10
-1016.034776463801
 20
-246.6672769211779
 30
0.0
 10
-669.5978129818287
 20
-246.6672769211779
 30
0.0
 10
-666.3280706997473
 20
-246.6672769211779
 30
0.0
 10
-662.7999460858186
 20
-246.6672769211779
 30
0.0
 10
-659.125060307401
 20
-243.2866024912901
 30
0.0
 10
-656.3906862169067
 20
-232.4386786710203
 30
0.0
 10
-655.528378248089
 20
-229.0176965973644
 30
0.0
 10
-637.8629504745887
 20
-170.5254488235877
 30
0.0
 10
-637.8629504745887
 20
-108.4372080100505
 30
0.0
 10
-637.8629504745887
 20
-46.34827817696178
 30
0.0
 10
-637.8629504745887
 20
3.332787571052137
 30
0.0
 10
-637.8629504745887
 20
3.332787571052137
 30
0.0
  0
POLYLINE
  5
128
330
123
100
AcDbEntity
  8
\U+30EC\U+30A4\U+30E4\U+30FC 2
 62
   250
420
  2234132
370
    18
100
AcDb2dPolyline
 66
     1
 10
0.0
 20
0.0
 30
0.0
  0
VERTEX
  5
129
330
128
100
AcDbEntity
  8
\U+30EC\U+30A4\U+30E4\U+30FC 2
 62
   250
420
  2234132
370
    18
100
AcDbVertex
100
AcDb2dVertex
 10
-788.636275812679
 20
3.27594345804577
 30
0.0
  0
VERTEX
  5
12A
330
128
100
AcDbEntity
  8
\U+30EC\U+30A4\U+30E4\U+30FC 2
 62
   250
420
  2234132
370
    18
100
AcDbVertex
100
AcDb2dVertex
 10
-788.636275812679
 20
-246.5938963389333
 30
0.0
  0
SEQEND
  5
12B
330
128
100
AcDbEntity
  8
\U+30EC\U+30A4\U+30E4\U+30FC 2
370
    18
  0
ENDBLK
  5
126
330
123
100
AcDbEntity
  8
0
100
AcDbBlockEnd
  0
BLOCK
  5
12E
330
12C
100
AcDbEntity
  8
0
100
AcDbBlockBegin
  2
block 21
 70
     0
 71
     0
 10
0.0
 20
0.0
 30
0.0
  3
block 21
  1

  0
SPLINE
  5
130
330
12C
100
AcDbEntity
  8
\U+30EC\U+30A4\U+30E4\U+30FC 2
 62
   250
420
  2234132
370
    18
100
AcDbSpline
210
0.0
220
0.0
230
1.0
 70
     8
 71
     3
 72
    32
 73
    28
 74
     0
 42
0.0000000001
 43
0.0000000001
 40
0.0
 40
0.0
 40
0.0
 40
0.0
 40
1.0
 40
1.0
 40
1.0
 40
2.0
 40
2.0
 40
2.0
 40
3.0
 40
3.0
 40
3.0
 40
4.0
 40
4.0
 40
4.0
 40
5.0
 40
5.0
 40
5.0
 40
6.0
 40
6.0
 40
6.0
 40
7.0
 40
7.0
 40
7.0
 40
8.0
 40
8.0
 40
8.0
 40
9.0
 40
9.0
 40
9.0
 40
9.0
 10
-1078.001749836258
 20
-235.3807921563196
 30
0.0
 10
-1078.001749836258
 20
-237.3210712136037
 30
0.0
 10
-1088.409734672836
 20
-241.2016293281717
 30
0.0
 10
-1097.053484947562
 20
-242.9655193802481
 30
0.0
 10
-1105.697235222288
 20
-244.7294094323245
 30
0.0
 10
-1135.215866341831
 20
-245.669921120248
 30
0.0
 10
-1155.090979817288
 20
-258.4877518385202
 30
0.0
 10
-1162.361169615914
 20
-263.1758408675545
 30
0.0
 10
-1194.429862095901
 20
-281.7711005259285
 30
0.0
 10
-1240.295482076972
 20
-281.7711005259285
 30
0.0
 10
-1286.161102058044
 20
-281.7711005259285
 30
0.0
 10
-1310.857888228099
 20
-272.4224832499237
 30
0.0
 10
-1324.264658408095
 20
-241.7307963437946
 30
0.0
 10
-1337.671600842979
 20
-211.0391094376655
 30
0.0
 10
-1356.723508209171
 20
-159.1807419066198
 30
0.0
 10
-1357.958231245624
 20
-149.832124630615
 30
0.0
 10
-1359.193126536966
 20
-140.4835073546101
 30
0.0
 10
-1355.312223912622
 20
-132.722391125474
 30
0.0
 10
-1349.490869976106
 20
-132.5460021202664
 30
0.0
 10
-1343.669343784703
 20
-132.3696131150588
 30
0.0
 10
-1270.108669054821
 20
-124.6581062936373
 30
0.0
 10
-1254.760758543102
 20
-120.7279387713546
 30
0.0
 10
-1229.133365341176
 20
-114.1650275424376
 30
0.0
 10
-1219.832290414231
 20
-101.4657081870392
 30
0.0
 10
-1219.832290414231
 20
-81.74596862046654
 30
0.0
 10
-1219.832290414231
 20
-72.3973513444617
 30
0.0
 10
-1219.832290414231
 20
3.273531889615196
 30
0.0
 10
-1219.832290414231
 20
3.273531889615196
 30
0.0
  0
SPLINE
  5
131
330
12C
100
AcDbEntity
  8
\U+30EC\U+30A4\U+30E4\U+30FC 2
 62
   250
420
  2234132
370
    18
100
AcDbSpline
210
0.0
220
0.0
230
1.0
 70
     8
 71
     3
 72
    20
 73
    16
 74
     0
 42
0.0000000001
 43
0.0000000001
 40
0.0
 40
0.0
 40
0.0
 40
0.0
 40
1.0
 40
1.0
 40
1.0
 40
2.0
 40
2.0
 40
2.0
 40
3.0
 40
3.0
 40
3.0
 40
4.0
 40
4.0
 40
4.0
 40
5.0
 40
5.0
 40
5.0
 40
5.0
 10
-1389.123274583697
 20
3.332787571052137
 30
0.0
 10
-1389.123274583697
 20
-0.783415230160488
 30
0.0
 10
-1387.947290464017
 20
-69.04596024551657
 30
0.0
 10
-1387.594512453602
 20
-78.92374453714432
 30
0.0
 10
-1387.241734443186
 20
-88.80152882877208
 30
0.0
 10
-1385.65406114143
 20
-100.9723701880991
 30
0.0
 10
-1385.301283131015
 20
-103.2654272557984
 30
0.0
 10
-1384.948505120599
 20
-105.5584843234977
 30
0.0
 10
-1383.360831818843
 20
-106.6168183547436
 30
0.0
 10
-1380.714652230952
 20
-107.1459853703665
 30
0.0
 10
-1378.06864489795
 20
-107.6751523859894
 30
0.0
 10
-1350.72559301256
 20
-109.6154314432734
 30
0.0
 10
-1319.14886049241
 20
-107.4987633807818
 30
0.0
 10
-1287.572214099705
 20
-105.3820953182901
 30
0.0
 10
-1223.184026022952
 20
-98.32653510998455
 30
0.0
 10
-1220.361457429854
 20
-88.97791783397972
 30
0.0
  0
SPLINE
  5
132
330
12C
100
AcDbEntity
  8
\U+30EC\U+30A4\U+30E4\U+30FC 2
 62
   250
420
  2234132
370
    18
100
AcDbSpline
210
0.0
220
0.0
230
1.0
 70
     8
 71
     3
 72
    11
 73
     7
 74
     0
 42
0.0000000001
 43
0.0000000001
 40
0.0
 40
0.0
 40
0.0
 40
0.0
 40
1.0
 40
1.0
 40
1.0
 40
2.0
 40
2.0
 40
2.0
 40
2.0
 10
-1380.714652230952
 20
-107.1459853703665
 30
0.0
 10
-1380.714652230952
 20
-107.1459853703665
 30
0.0
 10
-1379.303540189291
 20
-118.9640487192783
 30
0.0
 10
-1376.304582590986
 20
-122.1390508130157
 30
0.0
 10
-1373.30562499268
 20
-125.3140529067532
 30
0.0
 10
-1363.60336843182
 20
-132.722391125474
 30
0.0
 10
-1348.432363689972
 20
-132.3696131150588
 30
0.0
  0
SPLINE
  5
133
330
12C
100
AcDbEntity
  8
\U+30EC\U+30A4\U+30E4\U+30FC 2
 62
   250
420
  2234132
370
    18
100
AcDbSpline
210
0.0
220
0.0
230
1.0
 70
     8
 71
     3
 72
    14
 73
    10
 74
     0
 42
0.0000000001
 43
0.0000000001
 40
0.0
 40
0.0
 40
0.0
 40
0.0
 40
1.0
 40
1.0
 40
1.0
 40
2.0
 40
2.0
 40
2.0
 40
3.0
 40
3.0
 40
3.0
 40
3.0
 10
-1378.421422908365
 20
-116.4946026463713
 30
0.0
 10
-1378.421422908365
 20
-116.4946026463713
 30
0.0
 10
-1370.659617659677
 20
-120.0223827505241
 30
0.0
 10
-1360.251632823099
 20
-120.0223827505241
 30
0.0
 10
-1349.843647986521
 20
-120.0223827505241
 30
0.0
 10
-1313.856673571517
 20
-119.6696047401088
 30
0.0
 10
-1284.926034511814
 20
-115.7890466255408
 30
0.0
 10
-1255.995481579555
 20
-111.9084885109727
 30
0.0
 10
-1232.356943313301
 20
-106.9695963651588
 30
0.0
 10
-1225.300694085444
 20
-102.3834822297602
 30
0.0
  0
SPLINE
  5
134
330
12C
100
AcDbEntity
  8
\U+30EC\U+30A4\U+30E4\U+30FC 2
 62
   250
420
  2234132
370
    18
100
AcDbSpline
210
0.0
220
0.0
230
1.0
 70
     8
 71
     3
 72
    14
 73
    10
 74
     0
 42
0.0000000001
 43
0.0000000001
 40
0.0
 40
0.0
 40
0.0
 40
0.0
 40
1.0
 40
1.0
 40
1.0
 40
2.0
 40
2.0
 40
2.0
 40
3.0
 40
3.0
 40
3.0
 40
3.0
 10
-1385.477672136222
 20
-99.9140361568533
 30
0.0
 10
-1385.477672136222
 20
-99.9140361568533
 30
0.0
 10
-1352.666044324732
 20
-104.1473722818366
 30
0.0
 10
-1327.440005011609
 20
-102.3834822297602
 30
0.0
 10
-1302.213965698486
 20
-100.6195921776839
 30
0.0
 10
-1270.637147050892
 20
-97.09181207353109
 30
0.0
 10
-1257.230204616009
 20
-94.79875500583178
 30
0.0
 10
-1243.823606690901
 20
-92.50569793813249
 30
0.0
 10
-1224.06597104899
 20
-88.62513982356444
 30
0.0
 10
-1220.185068424647
 20
-83.50985867254292
 30
0.0
  0
POLYLINE
  5
135
330
12C
100
AcDbEntity
  8
\U+30EC\U+30A4\U+30E4\U+30FC 2
 62
   250
420
  2234132
370
    18
100
AcDb2dPolyline
 66
     1
 10
0.0
 20
0.0
 30
0.0
  0
VERTEX
  5
136
330
135
100
AcDbEntity
  8
\U+30EC\U+30A4\U+30E4\U+30FC 2
 62
   250
420
  2234132
370
    18
100
AcDbVertex
100
AcDb2dVertex
 10
-1122.808691276308
 20
3.097142884407558
 30
0.0
  0
VERTEX
  5
137
330
135
100
AcDbEntity
  8
\U+30EC\U+30A4\U+30E4\U+30FC 2
 62
   250
420
  2234132
370
    18
100
AcDbVertex
100
AcDb2dVertex
 10
-1122.808691276308
 20
-246.8460774948161
 30
0.0
  0
SEQEND
  5
138
330
135
100
AcDbEntity
  8
\U+30EC\U+30A4\U+30E4\U+30FC 2
370
    18
  0
ENDBLK
  5
12F
330
12C
100
AcDbEntity
  8
0
100
AcDbBlockEnd
  0
BLOCK
  5
13B
330
139
100
AcDbEntity
  8
0
100
AcDbBlockBegin
  2
block 22
 70
     0
 71
     0
 10
0.0
 20
0.0
 30
0.0
  3
block 22
  1

  0
SPLINE
  5
13D
330
139
100
AcDbEntity
  8
\U+30EC\U+30A4\U+30E4\U+30FC 2
 62
   250
420
  2234132
370
    18
100
AcDbSpline
210
0.0
220
0.0
230
1.0
 70
     8
 71
     3
 72
    14
 73
    10
 74
     0
 42
0.0000000001
 43
0.0000000001
 40
0.0
 40
0.0
 40
0.0
 40
0.0
 40
1.0
 40
1.0
 40
1.0
 40
2.0
 40
2.0
 40
2.0
 40
3.0
 40
3.0
 40
3.0
 40
3.0
 10
-611.6423114387424
 20
-186.2268263652738
 30
0.0
 10
-611.6423114387424
 20
-186.2268263652738
 30
0.0
 10
-435.7063365862759
 20
-186.2268263652738
 30
0.0
 10
-407.8341176852626
 20
-186.2268263652738
 30
0.0
 10
-379.9622432940252
 20
-186.2268263652738
 30
0.0
 10
-358.7934956104538
 20
-172.703439626171
 30
0.0
 10
-348.2091217686681
 20
-143.7756427721183
 30
0.0
 10
-337.6247479268824
 20
-114.8478459180656
 30
0.0
 10
-328.8042641371731
 20
-61.22558833494354
 30
0.0
 10
-328.8042641371731
 20
3.332787571052137
 30
0.0
  0
SPLINE
  5
13E
330
139
100
AcDbEntity
  8
\U+30EC\U+30A4\U+30E4\U+30FC 2
 62
   250
420
  2234132
370
    18
100
AcDbSpline
210
0.0
220
0.0
230
1.0
 70
     8
 71
     3
 72
    17
 73
    13
 74
     0
 42
0.0000000001
 43
0.0000000001
 40
0.0
 40
0.0
 40
0.0
 40
0.0
 40
1.0
 40
1.0
 40
1.0
 40
2.0
 40
2.0
 40
2.0
 40
3.0
 40
3.0
 40
3.0
 40
4.0
 40
4.0
 40
4.0
 40
4.0
 10
-610.701455241043
 20
-169.9418492633889
 30
0.0
 10
-610.701455241043
 20
-169.9418492633889
 30
0.0
 10
-502.3879262405034
 20
-169.9418492633889
 30
0.0
 10
-472.0462612665831
 20
-169.9418492633889
 30
0.0
 10
-441.7042517828872
 20
-169.9418492633889
 30
0.0
 10
-397.2500883532527
 20
-171.7057393154653
 30
0.0
 10
-382.0789113565169
 20
-162.8862890550834
 30
0.0
 10
-366.9080788695568
 20
-154.0668387947015
 30
0.0
 10
-358.0875950798475
 20
-120.9057058156655
 30
0.0
 10
-354.2066924555036
 20
-100.7973592219947
 30
0.0
 10
-350.3257898311598
 20
-80.6890126283239
 30
0.0
 10
-348.5618997790834
 20
-23.18619693063376
 30
0.0
 10
-348.5618997790834
 20
3.272153850512012
 30
0.0
  0
POLYLINE
  5
13F
330
139
100
AcDbEntity
  8
\U+30EC\U+30A4\U+30E4\U+30FC 2
 62
   250
420
  2234132
370
    18
100
AcDb2dPolyline
 66
     1
 10
0.0
 20
0.0
 30
0.0
  0
VERTEX
  5
140
330
13F
100
AcDbEntity
  8
\U+30EC\U+30A4\U+30E4\U+30FC 2
 62
   250
420
  2234132
370
    18
100
AcDbVertex
100
AcDb2dVertex
 10
-576.4785431330032
 20
-169.9418492633889
 30
0.0
  0
VERTEX
  5
141
330
13F
100
AcDbEntity
  8
\U+30EC\U+30A4\U+30E4\U+30FC 2
 62
   250
420
  2234132
370
    18
100
AcDbVertex
100
AcDb2dVertex
 10
-576.4785431330032
 20
3.332787571052137
 30
0.0
  0
SEQEND
  5
142
330
13F
100
AcDbEntity
  8
\U+30EC\U+30A4\U+30E4\U+30FC 2
370
    18
  0
POLYLINE
  5
143
330
139
100
AcDbEntity
  8
\U+30EC\U+30A4\U+30E4\U+30FC 2
 62
   250
420
  2234132
370
    18
100
AcDb2dPolyline
 66
     1
 10
0.0
 20
0.0
 30
0.0
  0
VERTEX
  5
144
330
143
100
AcDbEntity
  8
\U+30EC\U+30A4\U+30E4\U+30FC 2
 62
   250
420
  2234132
370
    18
100
AcDbVertex
100
AcDb2dVertex
 10
-550.0177807834269
 20
-169.9418492633889
 30
0.0
  0
VERTEX
  5
145
330
143
100
AcDbEntity
  8
\U+30EC\U+30A4\U+30E4\U+30FC 2
 62
   250
420
  2234132
370
    18
100
AcDbVertex
100
AcDb2dVertex
 10
-550.0177807834269
 20
3.332787571052137
 30
0.0
  0
SEQEND
  5
146
330
143
100
AcDbEntity
  8
\U+30EC\U+30A4\U+30E4\U+30FC 2
370
    18
  0
POLYLINE
  5
147
330
139
100
AcDbEntity
  8
\U+30EC\U+30A4\U+30E4\U+30FC 2
 62
   250
420
  2234132
370
    18
100
AcDb2dPolyline
 66
     1
 10
0.0
 20
0.0
 30
0.0
  0
VERTEX
  5
148
330
147
100
AcDbEntity
  8
\U+30EC\U+30A4\U+30E4\U+30FC 2
 62
   250
420
  2234132
370
    18
100
AcDbVertex
100
AcDb2dVertex
 10
-524.262574454681
 20
-169.7654602581813
 30
0.0
  0
VERTEX
  5
149
330
147
100
AcDbEntity
  8
\U+30EC\U+30A4\U+30E4\U+30FC 2
 62
   250
420
  2234132
370
    18
100
AcDbVertex
100
AcDb2dVertex
 10
-524.262574454681
 20
3.332787571052137
 30
0.0
  0
SEQEND
  5
14A
330
147
100
AcDbEntity
  8
\U+30EC\U+30A4\U+30E4\U+30FC 2
370
    18
  0
POLYLINE
  5
14B
330
139
100
AcDbEntity
  8
\U+30EC\U+30A4\U+30E4\U+30FC 2
 62
   250
420
  2234132
370
    18
100
AcDb2dPolyline
 66
     1
 10
0.0
 20
0.0
 30
0.0
  0
VERTEX
  5
14C
330
14B
100
AcDbEntity
  8
\U+30EC\U+30A4\U+30E4\U+30FC 2
 62
   250
420
  2234132
370
    18
100
AcDbVertex
100
AcDb2dVertex
 10
-498.8598016265748
 20
-169.5890712529737
 30
0.0
  0
VERTEX
  5
14D
330
14B
100
AcDbEntity
  8
\U+30EC\U+30A4\U+30E4\U+30FC 2
 62
   250
420
  2234132
370
    18
100
AcDbVertex
100
AcDb2dVertex
 10
-498.8598016265748
 20
3.332787571052137
 30
0.0
  0
SEQEND
  5
14E
330
14B
100
AcDbEntity
  8
\U+30EC\U+30A4\U+30E4\U+30FC 2
370
    18
  0
POLYLINE
  5
14F
330
139
100
AcDbEntity
  8
\U+30EC\U+30A4\U+30E4\U+30FC 2
 62
   250
420
  2234132
370
    18
100
AcDb2dPolyline
 66
     1
 10
0.0
 20
0.0
 30
0.0
  0
VERTEX
  5
150
330
14F
100
AcDbEntity
  8
\U+30EC\U+30A4\U+30E4\U+30FC 2
 62
   250
420
  2234132
370
    18
100
AcDbVertex
100
AcDb2dVertex
 10
-474.1629293290748
 20
-169.7654602581813
 30
0.0
  0
VERTEX
  5
151
330
14F
100
AcDbEntity
  8
\U+30EC\U+30A4\U+30E4\U+30FC 2
 62
   250
420
  2234132
370
    18
100
AcDbVertex
100
AcDb2dVertex
 10
-474.1629293290748
 20
3.332787571052137
 30
0.0
  0
SEQEND
  5
152
330
14F
100
AcDbEntity
  8
\U+30EC\U+30A4\U+30E4\U+30FC 2
370
    18
  0
POLYLINE
  5
153
330
139
100
AcDbEntity
  8
\U+30EC\U+30A4\U+30E4\U+30FC 2
 62
   250
420
  2234132
370
    18
100
AcDb2dPolyline
 66
     1
 10
0.0
 20
0.0
 30
0.0
  0
VERTEX
  5
154
330
153
100
AcDbEntity
  8
\U+30EC\U+30A4\U+30E4\U+30FC 2
 62
   250
420
  2234132
370
    18
100
AcDbVertex
100
AcDb2dVertex
 10
-450.5247355725965
 20
-169.7654602581813
 30
0.0
  0
VERTEX
  5
155
330
153
100
AcDbEntity
  8
\U+30EC\U+30A4\U+30E4\U+30FC 2
 62
   250
420
  2234132
370
    18
100
AcDbVertex
100
AcDb2dVertex
 10
-450.5247355725965
 20
3.332787571052137
 30
0.0
  0
SEQEND
  5
156
330
153
100
AcDbEntity
  8
\U+30EC\U+30A4\U+30E4\U+30FC 2
370
    18
  0
POLYLINE
  5
157
330
139
100
AcDbEntity
  8
\U+30EC\U+30A4\U+30E4\U+30FC 2
 62
   250
420
  2234132
370
    18
100
AcDb2dPolyline
 66
     1
 10
0.0
 20
0.0
 30
0.0
  0
VERTEX
  5
158
330
157
100
AcDbEntity
  8
\U+30EC\U+30A4\U+30E4\U+30FC 2
 62
   250
420
  2234132
370
    18
100
AcDbVertex
100
AcDb2dVertex
 10
-424.240017718452
 20
-169.7654602581813
 30
0.0
  0
VERTEX
  5
159
330
157
100
AcDbEntity
  8
\U+30EC\U+30A4\U+30E4\U+30FC 2
 62
   250
420
  2234132
370
    18
100
AcDbVertex
100
AcDb2dVertex
 10
-424.240017718452
 20
3.332787571052137
 30
0.0
  0
SEQEND
  5
15A
330
157
100
AcDbEntity
  8
\U+30EC\U+30A4\U+30E4\U+30FC 2
370
    18
  0
POLYLINE
  5
15B
330
139
100
AcDbEntity
  8
\U+30EC\U+30A4\U+30E4\U+30FC 2
 62
   250
420
  2234132
370
    18
100
AcDb2dPolyline
 66
     1
 10
0.0
 20
0.0
 30
0.0
  0
VERTEX
  5
15C
330
15B
100
AcDbEntity
  8
\U+30EC\U+30A4\U+30E4\U+30FC 2
 62
   250
420
  2234132
370
    18
100
AcDbVertex
100
AcDb2dVertex
 10
-397.9556443740833
 20
-166.9432361748591
 30
0.0
  0
VERTEX
  5
15D
330
15B
100
AcDbEntity
  8
\U+30EC\U+30A4\U+30E4\U+30FC 2
 62
   250
420
  2234132
370
    18
100
AcDbVertex
100
AcDb2dVertex
 10
-397.9556443740833
 20
3.332787571052137
 30
0.0
  0
SEQEND
  5
15E
330
15B
100
AcDbEntity
  8
\U+30EC\U+30A4\U+30E4\U+30FC 2
370
    18
  0
ENDBLK
  5
13C
330
139
100
AcDbEntity
  8
0
100
AcDbBlockEnd
  0
BLOCK
  5
165
330
163
100
AcDbEntity
  8
0
100
AcDbBlockBegin
  2
block 23
 70
     0
 71
     0
 10
0.0
 20
0.0
 30
0.0
  3
block 23
  1

  0
SPLINE
  5
167
330
163
100
AcDbEntity
  8
\U+30EC\U+30A4\U+30E4\U+30FC 2
 62
   250
420
  2234132
370
    18
100
AcDbSpline
210
0.0
220
0.0
230
1.0
 70
     8
 71
     3
 72
    14
 73
    10
 74
     0
 42
0.0000000001
 43
0.0000000001
 40
0.0
 40
0.0
 40
0.0
 40
0.0
 40
1.0
 40
1.0
 40
1.0
 40
2.0
 40
2.0
 40
2.0
 40
3.0
 40
3.0
 40
3.0
 40
3.0
 10
-611.6423114387424
 20
192.8924015073781
 30
0.0
 10
-611.6423114387424
 20
192.8924015073781
 30
0.0
 10
-435.7063365862759
 20
192.8924015073781
 30
0.0
 10
-407.8341176852626
 20
192.8924015073781
 30
0.0
 10
-379.9622432940252
 20
192.8924015073781
 30
0.0
 10
-358.7934956104538
 20
179.3690147682753
 30
0.0
 10
-348.2091217686681
 20
150.4412179142226
 30
0.0
 10
-337.6247479268824
 20
121.5134210601699
 30
0.0
 10
-328.8042641371731
 20
67.89116347704781
 30
0.0
 10
-328.8042641371731
 20
3.332787571052137
 30
0.0
  0
SPLINE
  5
168
330
163
100
AcDbEntity
  8
\U+30EC\U+30A4\U+30E4\U+30FC 2
 62
   250
420
  2234132
370
    18
100
AcDbSpline
210
0.0
220
0.0
230
1.0
 70
     8
 71
     3
 72
    17
 73
    13
 74
     0
 42
0.0000000001
 43
0.0000000001
 40
0.0
 40
0.0
 40
0.0
 40
0.0
 40
1.0
 40
1.0
 40
1.0
 40
2.0
 40
2.0
 40
2.0
 40
3.0
 40
3.0
 40
3.0
 40
4.0
 40
4.0
 40
4.0
 40
4.0
 10
-610.701455241043
 20
176.6074244054932
 30
0.0
 10
-610.701455241043
 20
176.6074244054932
 30
0.0
 10
-502.3879262405034
 20
176.6074244054932
 30
0.0
 10
-472.0462612665831
 20
176.6074244054932
 30
0.0
 10
-441.7042517828872
 20
176.6074244054932
 30
0.0
 10
-397.2500883532527
 20
178.3713144575696
 30
0.0
 10
-382.0789113565169
 20
169.5518641971877
 30
0.0
 10
-366.9080788695568
 20
160.7324139368058
 30
0.0
 10
-358.0875950798475
 20
127.5712809577697
 30
0.0
 10
-354.2066924555036
 20
107.4629343640989
 30
0.0
 10
-350.3257898311598
 20
87.35458777042817
 30
0.0
 10
-348.5618997790834
 20
29.85177207273803
 30
0.0
 10
-348.5618997790834
 20
3.393421291592263
 30
0.0
  0
POLYLINE
  5
169
330
163
100
AcDbEntity
  8
\U+30EC\U+30A4\U+30E4\U+30FC 2
 62
   250
420
  2234132
370
    18
100
AcDb2dPolyline
 66
     1
 10
0.0
 20
0.0
 30
0.0
  0
VERTEX
  5
16A
330
169
100
AcDbEntity
  8
\U+30EC\U+30A4\U+30E4\U+30FC 2
 62
   250
420
  2234132
370
    18
100
AcDbVertex
100
AcDb2dVertex
 10
-576.4785431330032
 20
176.6074244054932
 30
0.0
  0
VERTEX
  5
16B
330
169
100
AcDbEntity
  8
\U+30EC\U+30A4\U+30E4\U+30FC 2
 62
   250
420
  2234132
370
    18
100
AcDbVertex
100
AcDb2dVertex
 10
-576.4785431330032
 20
3.332787571052137
 30
0.0
  0
SEQEND
  5
16C
330
169
100
AcDbEntity
  8
\U+30EC\U+30A4\U+30E4\U+30FC 2
370
    18
  0
POLYLINE
  5
16D
330
163
100
AcDbEntity
  8
\U+30EC\U+30A4\U+30E4\U+30FC 2
 62
   250
420
  2234132
370
    18
100
AcDb2dPolyline
 66
     1
 10
0.0
 20
0.0
 30
0.0
  0
VERTEX
  5
16E
330
16D
100
AcDbEntity
  8
\U+30EC\U+30A4\U+30E4\U+30FC 2
 62
   250
420
  2234132
370
    18
100
AcDbVertex
100
AcDb2dVertex
 10
-550.0177807834269
 20
176.6074244054932
 30
0.0
  0
VERTEX
  5
16F
330
16D
100
AcDbEntity
  8
\U+30EC\U+30A4\U+30E4\U+30FC 2
 62
   250
420
  2234132
370
    18
100
AcDbVertex
100
AcDb2dVertex
 10
-550.0177807834269
 20
3.332787571052137
 30
0.0
  0
SEQEND
  5
170
330
16D
100
AcDbEntity
  8
\U+30EC\U+30A4\U+30E4\U+30FC 2
370
    18
  0
POLYLINE
  5
171
330
163
100
AcDbEntity
  8
\U+30EC\U+30A4\U+30E4\U+30FC 2
 62
   250
420
  2234132
370
    18
100
AcDb2dPolyline
 66
     1
 10
0.0
 20
0.0
 30
0.0
  0
VERTEX
  5
172
330
171
100
AcDbEntity
  8
\U+30EC\U+30A4\U+30E4\U+30FC 2
 62
   250
420
  2234132
370
    18
100
AcDbVertex
100
AcDb2dVertex
 10
-524.262574454681
 20
176.4310354002856
 30
0.0
  0
VERTEX
  5
173
330
171
100
AcDbEntity
  8
\U+30EC\U+30A4\U+30E4\U+30FC 2
 62
   250
420
  2234132
370
    18
100
AcDbVertex
100
AcDb2dVertex
 10
-524.262574454681
 20
3.332787571052137
 30
0.0
  0
SEQEND
  5
174
330
171
100
AcDbEntity
  8
\U+30EC\U+30A4\U+30E4\U+30FC 2
370
    18
  0
POLYLINE
  5
175
330
163
100
AcDbEntity
  8
\U+30EC\U+30A4\U+30E4\U+30FC 2
 62
   250
420
  2234132
370
    18
100
AcDb2dPolyline
 66
     1
 10
0.0
 20
0.0
 30
0.0
  0
VERTEX
  5
176
330
175
100
AcDbEntity
  8
\U+30EC\U+30A4\U+30E4\U+30FC 2
 62
   250
420
  2234132
370
    18
100
AcDbVertex
100
AcDb2dVertex
 10
-498.8598016265748
 20
176.2546463950779
 30
0.0
  0
VERTEX
  5
177
330
175
100
AcDbEntity
  8
\U+30EC\U+30A4\U+30E4\U+30FC 2
 62
   250
420
  2234132
370
    18
100
AcDbVertex
100
AcDb2dVertex
 10
-498.8598016265748
 20
3.332787571052137
 30
0.0
  0
SEQEND
  5
178
330
175
100
AcDbEntity
  8
\U+30EC\U+30A4\U+30E4\U+30FC 2
370
    18
  0
POLYLINE
  5
179
330
163
100
AcDbEntity
  8
\U+30EC\U+30A4\U+30E4\U+30FC 2
 62
   250
420
  2234132
370
    18
100
AcDb2dPolyline
 66
     1
 10
0.0
 20
0.0
 30
0.0
  0
VERTEX
  5
17A
330
179
100
AcDbEntity
  8
\U+30EC\U+30A4\U+30E4\U+30FC 2
 62
   250
420
  2234132
370
    18
100
AcDbVertex
100
AcDb2dVertex
 10
-474.1629293290748
 20
176.4310354002856
 30
0.0
  0
VERTEX
  5
17B
330
179
100
AcDbEntity
  8
\U+30EC\U+30A4\U+30E4\U+30FC 2
 62
   250
420
  2234132
370
    18
100
AcDbVertex
100
AcDb2dVertex
 10
-474.1629293290748
 20
3.332787571052137
 30
0.0
  0
SEQEND
  5
17C
330
179
100
AcDbEntity
  8
\U+30EC\U+30A4\U+30E4\U+30FC 2
370
    18
  0
POLYLINE
  5
17D
330
163
100
AcDbEntity
  8
\U+30EC\U+30A4\U+30E4\U+30FC 2
 62
   250
420
  2234132
370
    18
100
AcDb2dPolyline
 66
     1
 10
0.0
 20
0.0
 30
0.0
  0
VERTEX
  5
17E
330
17D
100
AcDbEntity
  8
\U+30EC\U+30A4\U+30E4\U+30FC 2
 62
   250
420
  2234132
370
    18
100
AcDbVertex
100
AcDb2dVertex
 10
-450.5247355725965
 20
176.4310354002856
 30
0.0
  0
VERTEX
  5
17F
330
17D
100
AcDbEntity
  8
\U+30EC\U+30A4\U+30E4\U+30FC 2
 62
   250
420
  2234132
370
    18
100
AcDbVertex
100
AcDb2dVertex
 10
-450.5247355725965
 20
3.332787571052137
 30
0.0
  0
SEQEND
  5
180
330
17D
100
AcDbEntity
  8
\U+30EC\U+30A4\U+30E4\U+30FC 2
370
    18
  0
POLYLINE
  5
181
330
163
100
AcDbEntity
  8
\U+30EC\U+30A4\U+30E4\U+30FC 2
 62
   250
420
  2234132
370
    18
100
AcDb2dPolyline
 66
     1
 10
0.0
 20
0.0
 30
0.0
  0
VERTEX
  5
182
330
181
100
AcDbEntity
  8
\U+30EC\U+30A4\U+30E4\U+30FC 2
 62
   250
420
  2234132
370
    18
100
AcDbVertex
100
AcDb2dVertex
 10
-424.240017718452
 20
176.4310354002856
 30
0.0
  0
VERTEX
  5
183
330
181
100
AcDbEntity
  8
\U+30EC\U+30A4\U+30E4\U+30FC 2
 62
   250
420
  2234132
370
    18
100
AcDbVertex
100
AcDb2dVertex
 10
-424.240017718452
 20
3.332787571052137
 30
0.0
  0
SEQEND
  5
184
330
181
100
AcDbEntity
  8
\U+30EC\U+30A4\U+30E4\U+30FC 2
370
    18
  0
POLYLINE
  5
185
330
163
100
AcDbEntity
  8
\U+30EC\U+30A4\U+30E4\U+30FC 2
 62
   250
420
  2234132
370
    18
100
AcDb2dPolyline
 66
     1
 10
0.0
 20
0.0
 30
0.0
  0
VERTEX
  5
186
330
185
100
AcDbEntity
  8
\U+30EC\U+30A4\U+30E4\U+30FC 2
 62
   250
420
  2234132
370
    18
100
AcDbVertex
100
AcDb2dVertex
 10
-397.9556443740833
 20
173.6088113169634
 30
0.0
  0
VERTEX
  5
187
330
185
100
AcDbEntity
  8
\U+30EC\U+30A4\U+30E4\U+30FC 2
 62
   250
420
  2234132
370
    18
100
AcDbVertex
100
AcDb2dVertex
 10
-397.9556443740833
 20
3.332787571052137
 30
0.0
  0
SEQEND
  5
188
330
185
100
AcDbEntity
  8
\U+30EC\U+30A4\U+30E4\U+30FC 2
370
    18
  0
ENDBLK
  5
166
330
163
100
AcDbEntity
  8
0
100
AcDbBlockEnd
  0
BLOCK
  5
190
330
18E
100
AcDbEntity
  8
0
100
AcDbBlockBegin
  2
block 24
 70
     0
 71
     0
 10
0.0
 20
0.0
 30
0.0
  3
block 24
  1

  0
SPLINE
  5
192
330
18E
100
AcDbEntity
  8
\U+30EC\U+30A4\U+30E4\U+30FC 2
  6
AI-Linetype-5
 62
   250
420
  2234132
370
    18
100
AcDbSpline
210
0.0
220
0.0
230
1.0
 70
     8
 71
     3
 72
    17
 73
    13
 74
     0
 42
0.0000000001
 43
0.0000000001
 40
0.0
 40
0.0
 40
0.0
 40
0.0
 40
1.0
 40
1.0
 40
1.0
 40
2.0
 40
2.0
 40
2.0
 40
3.0
 40
3.0
 40
3.0
 40
4.0
 40
4.0
 40
4.0
 40
4.0
 10
-659.6948794765678
 20
250.5695391516211
 30
0.0
 10
-659.6948794765678
 20
250.5695391516211
 30
0.0
 10
-641.427248614976
 20
251.9806511932822
 30
0.0
 10
-622.9498112999242
 20
251.9806511932822
 30
0.0
 10
-604.4720294750967
 20
251.9806511932822
 30
0.0
 10
-538.996051781268
 20
250.3344112296402
 30
0.0
 10
-520.5182699564405
 20
250.3344112296402
 30
0.0
 10
-502.0404881316129
 20
250.3344112296402
 30
0.0
 10
-449.5475335935507
 20
254.5677473546235
 30
0.0
 10
-449.5475335935507
 20
190.3621494590432
 30
0.0
 10
-449.5475335935507
 20
126.1565515634628
 30
0.0
 10
-449.5475335935507
 20
3.272153850512012
 30
0.0
 10
-449.5475335935507
 20
3.272153850512012
 30
0.0
  0
SPLINE
  5
194
330
18E
100
AcDbEntity
  8
\U+30EC\U+30A4\U+30E4\U+30FC 2
  6
AI-Linetype-6
 62
   250
420
  2234132
370
    18
100
AcDbSpline
210
0.0
220
0.0
230
1.0
 70
     8
 71
     3
 72
    17
 73
    13
 74
     0
 42
0.0000000001
 43
0.0000000001
 40
0.0
 40
0.0
 40
0.0
 40
0.0
 40
1.0
 40
1.0
 40
1.0
 40
2.0
 40
2.0
 40
2.0
 40
3.0
 40
3.0
 40
3.0
 40
4.0
 40
4.0
 40
4.0
 40
4.0
 10
-660.6355634193792
 20
-243.7899312737283
 30
0.0
 10
-660.6355634193792
 20
-243.7899312737283
 30
0.0
 10
-642.3679325577874
 20
-245.2010433153894
 30
0.0
 10
-623.8904952427357
 20
-245.2010433153894
 30
0.0
 10
-605.4127134179082
 20
-245.2010433153894
 30
0.0
 10
-538.996051781268
 20
-243.729642062964
 30
0.0
 10
-520.5182699564405
 20
-243.729642062964
 30
0.0
 10
-502.0404881316129
 20
-243.729642062964
 30
0.0
 10
-449.5475335935507
 20
-247.9629781879473
 30
0.0
 10
-449.5475335935507
 20
-183.7573802923669
 30
0.0
 10
-449.5475335935507
 20
-119.5517823967865
 30
0.0
 10
-449.5475335935507
 20
3.332787571052137
 30
0.0
 10
-449.5475335935507
 20
3.332787571052137
 30
0.0
  0
INSERT
  5
197
330
18E
100
AcDbEntity
  8
\U+30EC\U+30A4\U+30E4\U+30FC 2
100
AcDbBlockReference
  2
block 25
 10
0.0
 20
0.0
 30
0.0
  0
ENDBLK
  5
191
330
18E
100
AcDbEntity
  8
0
100
AcDbBlockEnd
  0
BLOCK
  5
198
330
196
100
AcDbEntity
  8
0
100
AcDbBlockBegin
  2
block 25
 70
     0
 71
     0
 10
0.0
 20
0.0
 30
0.0
  3
block 25
  1

  0
SPLINE
  5
19A
330
196
100
AcDbEntity
  8
\U+30EC\U+30A4\U+30E4\U+30FC 2
  6
AI-Linetype-7
 62
   250
420
  2234132
370
    18
100
AcDbSpline
210
0.0
220
0.0
230
1.0
 70
     8
 71
     3
 72
    47
 73
    43
 74
     0
 42
0.0000000001
 43
0.0000000001
 40
0.0
 40
0.0
 40
0.0
 40
0.0
 40
1.0
 40
1.0
 40
1.0
 40
2.0
 40
2.0
 40
2.0
 40
3.0
 40
3.0
 40
3.0
 40
4.0
 40
4.0
 40
4.0
 40
5.0
 40
5.0
 40
5.0
 40
6.0
 40
6.0
 40
6.0
 40
7.0
 40
7.0
 40
7.0
 40
8.0
 40
8.0
 40
8.0
 40
9.0
 40
9.0
 40
9.0
 40
10.0
 40
10.0
 40
10.0
 40
11.0
 40
11.0
 40
11.0
 40
12.0
 40
12.0
 40
12.0
 40
13.0
 40
13.0
 40
13.0
 40
14.0
 40
14.0
 40
14.0
 40
14.0
 10
-1739.548541612618
 20
3.332787571052137
 30
0.0
 10
-1739.548541612618
 20
8.830130063431604
 30
0.0
 10
-1738.236303876611
 20
80.65042753343472
 30
0.0
 10
-1738.131228394993
 20
88.05876575215554
 30
0.0
 10
-1738.026152913375
 20
95.46710397087635
 30
0.0
 10
-1736.319795993857
 20
108.3345440968633
 30
0.0
 10
-1736.162699536093
 20
109.7249855519766
 30
0.0
 10
-1735.768924862359
 20
113.2086684048274
 30
0.0
 10
-1731.910759883217
 20
113.7378354204504
 30
0.0
 10
-1731.910759883217
 20
113.7378354204504
 30
0.0
 10
-1731.910759883217
 20
113.7378354204504
 30
0.0
 10
-1730.84760271511
 20
121.6312434034922
 30
0.0
 10
-1730.375279812494
 20
123.3510362042667
 30
0.0
 10
-1729.902956909877
 20
125.0708290050411
 30
0.0
 10
-1729.351741268603
 20
127.4520805753443
 30
0.0
 10
-1727.107604589067
 20
129.7010403917417
 30
0.0
 10
-1724.863467909531
 20
131.950000208139
 30
0.0
 10
-1721.121747234609
 20
134.4385665736027
 30
0.0
 10
-1718.209950609579
 20
135.8305583227071
 30
0.0
 10
-1718.045274936749
 20
135.9092788064765
 30
0.0
 10
-1717.879910244367
 20
135.9861044864791
 30
0.0
 10
-1717.714545551984
 20
136.0608631078268
 30
0.0
 10
-1717.714545551984
 20
136.0608631078268
 30
0.0
 10
-1721.280910751026
 20
139.7972438812242
 30
0.0
 10
-1721.910674621182
 20
147.5583601103603
 30
0.0
 10
-1722.540783001113
 20
155.3194763394964
 30
0.0
 10
-1722.540783001113
 20
155.3194763394964
 30
0.0
 10
-1722.540783001113
 20
155.3194763394964
 30
0.0
 10
-1722.540783001113
 20
155.3194763394964
 30
0.0
 10
-1726.950163621528
 20
191.8320004174775
 30
0.0
 10
-1726.635281686451
 20
207.1778438705421
 30
0.0
 10
-1726.320399751373
 20
222.5236873236066
 30
0.0
 10
-1722.698223968652
 20
252.8625962193204
 30
0.0
 10
-1704.588034074599
 20
266.6209386255162
 30
0.0
 10
-1686.477844180546
 20
280.379281031712
 30
0.0
 10
-1659.706334013201
 20
288.669564276471
 30
0.0
 10
-1643.48578023939
 20
288.669564276471
 30
0.0
 10
-1627.265570975355
 20
288.669564276471
 30
0.0
 10
-1541.530523660945
 20
283.7306721306571
 30
0.0
 10
-1520.585707331641
 20
275.4403888858981
 30
0.0
 10
-1517.391240435571
 20
274.1760380087262
 30
0.0
 10
-1510.937538805581
 20
272.8296938049148
 30
0.0
 10
-1502.235049614082
 20
271.4437309768868
 30
0.0
  0
SPLINE
  5
19C
330
196
100
AcDbEntity
  8
\U+30EC\U+30A4\U+30E4\U+30FC 2
  6
AI-Linetype-8
 62
   250
420
  2234132
370
    18
100
AcDbSpline
210
0.0
220
0.0
230
1.0
 70
     8
 71
     3
 72
    56
 73
    52
 74
     0
 42
0.0000000001
 43
0.0000000001
 40
0.0
 40
0.0
 40
0.0
 40
0.0
 40
1.0
 40
1.0
 40
1.0
 40
2.0
 40
2.0
 40
2.0
 40
3.0
 40
3.0
 40
3.0
 40
4.0
 40
4.0
 40
4.0
 40
5.0
 40
5.0
 40
5.0
 40
6.0
 40
6.0
 40
6.0
 40
7.0
 40
7.0
 40
7.0
 40
8.0
 40
8.0
 40
8.0
 40
9.0
 40
9.0
 40
9.0
 40
10.0
 40
10.0
 40
10.0
 40
11.0
 40
11.0
 40
11.0
 40
12.0
 40
12.0
 40
12.0
 40
13.0
 40
13.0
 40
13.0
 40
14.0
 40
14.0
 40
14.0
 40
15.0
 40
15.0
 40
15.0
 40
16.0
 40
16.0
 40
16.0
 40
17.0
 40
17.0
 40
17.0
 40
17.0
 10
-1739.548541612618
 20
3.332787571052137
 30
0.0
 10
-1739.548541612618
 20
-2.164210411551533
 30
0.0
 10
-1738.236303876611
 20
-73.98450788155465
 30
0.0
 10
-1738.131228394993
 20
-81.39284610027546
 30
0.0
 10
-1738.026152913375
 20
-88.80118431899628
 30
0.0
 10
-1736.319795993857
 20
-101.668968954759
 30
0.0
 10
-1736.162699536093
 20
-103.0594104098723
 30
0.0
 10
-1735.768924862359
 20
-106.5430932627232
 30
0.0
 10
-1731.910759883217
 20
-107.0722602783461
 30
0.0
 10
-1731.910759883217
 20
-107.0722602783461
 30
0.0
 10
-1731.910759883217
 20
-107.0722602783461
 30
0.0
 10
-1730.84760271511
 20
-114.9656682613879
 30
0.0
 10
-1730.375279812494
 20
-116.6854610621624
 30
0.0
 10
-1729.902956909877
 20
-118.4052538629369
 30
0.0
 10
-1729.351741268603
 20
-120.78650543324
 30
0.0
 10
-1727.107604589067
 20
-123.0354652496374
 30
0.0
 10
-1724.863467909531
 20
-125.2844250660348
 30
0.0
 10
-1721.121747234609
 20
-127.7728191766105
 30
0.0
 10
-1718.209950609579
 20
-129.1649831806028
 30
0.0
 10
-1718.045274936749
 20
-129.2435314094843
 30
0.0
 10
-1717.879910244367
 20
-129.3203570894869
 30
0.0
 10
-1717.714545551984
 20
-129.3951157108347
 30
0.0
 10
-1717.714545551984
 20
-129.3951157108347
 30
0.0
 10
-1721.280910751026
 20
-133.1316687391199
 30
0.0
 10
-1721.910674621182
 20
-140.892784968256
 30
0.0
 10
-1722.540783001113
 20
-148.6539011973921
 30
0.0
 10
-1722.540783001113
 20
-148.6539011973921
 30
0.0
 10
-1722.540783001113
 20
-148.6539011973921
 30
0.0
 10
-1722.540783001113
 20
-148.6539011973921
 30
0.0
 10
-1726.950163621528
 20
-185.1664252753732
 30
0.0
 10
-1726.635281686451
 20
-200.5122687284378
 30
0.0
 10
-1726.320399751373
 20
-215.8581121815023
 30
0.0
 10
-1722.698223968652
 20
-246.1970210772161
 30
0.0
 10
-1704.588034074599
 20
-259.9553634834119
 30
0.0
 10
-1686.477844180546
 20
-273.7137058896078
 30
0.0
 10
-1659.706334013201
 20
-282.0039891343667
 30
0.0
 10
-1643.48578023939
 20
-282.0039891343667
 30
0.0
 10
-1627.265570975355
 20
-282.0039891343667
 30
0.0
 10
-1541.530523660945
 20
-277.0650969885529
 30
0.0
 10
-1520.585707331641
 20
-268.7748137437939
 30
0.0
 10
-1517.425346903375
 20
-267.523898747878
 30
0.0
 10
-1511.06466291285
 20
-266.2543802240691
 30
0.0
 10
-1502.484991456422
 20
-264.988651307794
 30
0.0
 10
-1502.484991456422
 20
-264.988651307794
 30
0.0
 10
-1502.484991456422
 20
-319.4022478459199
 30
0.0
 10
-1502.484991456422
 20
-321.0486600644497
 30
0.0
 10
-1502.484991456422
 20
-322.6950722829797
 30
0.0
 10
-1501.18791215055
 20
-326.4581525640012
 30
0.0
 10
-1499.071244088058
 20
-326.4581525640012
 30
0.0
 10
-1496.954576025566
 20
-326.4581525640012
 30
0.0
 10
-1269.177631385732
 20
-326.4581525640012
 30
0.0
 10
-1269.177631385732
 20
-326.4581525640012
 30
0.0
  0
ENDBLK
  5
199
330
196
100
AcDbEntity
  8
0
100
AcDbBlockEnd
  0
ENDSEC
  0
SECTION
  2
ENTITIES
  0
INSERT
  5
3E
330
1F
100
AcDbEntity
  8
\U+30EC\U+30A4\U+30E4\U+30FC 2
100
AcDbBlockReference
  2
block 2
 10
0.0
 20
0.0
 30
0.0
  0
INSERT
  5
95
330
1F
100
AcDbEntity
  8
\U+30EC\U+30A4\U+30E4\U+30FC 2
100
AcDbBlockReference
  2
block 9
 10
0.0
 20
0.0
 30
0.0
  0
INSERT
  5
FE
330
1F
100
AcDbEntity
  8
\U+30EC\U+30A4\U+30E4\U+30FC 2
100
AcDbBlockReference
  2
block 16
 10
0.0
 20
0.0
 30
0.0
  0
ENDSEC
  0
SECTION
  2
OBJECTS
  0
DICTIONARY
  5
C
330
0
100
AcDbDictionary
281
     1
  3
ACAD_GROUP
350
D
  3
ACAD_LAYOUT
350
1A
  3
ACAD_MLINESTYLE
350
17
  3
ACAD_PLOTSETTINGS
350
19
  3
ACAD_PLOTSTYLENAME
350
E
  3
ACAD_TABLESTYLE
350
1A0
  3
ACAD_VISUALSTYLE
350
2A
  0
DICTIONARY
  5
D
102
{ACAD_REACTORS
330
C
102
}
330
C
100
AcDbDictionary
281
     1
  0
DICTIONARY
  5
1A
102
{ACAD_REACTORS
330
C
102
}
330
C
100
AcDbDictionary
281
     1
  3
Layout1
350
1E
  3
Layout2
350
26
  3
Model
350
22
  0
DICTIONARY
  5
17
102
{ACAD_REACTORS
330
C
102
}
330
C
100
AcDbDictionary
281
     1
  3
Standard
350
18
  0
DICTIONARY
  5
19
102
{ACAD_REACTORS
330
C
102
}
330
C
100
AcDbDictionary
281
     1
  0
ACDBDICTIONARYWDFLT
  5
E
102
{ACAD_REACTORS
330
C
102
}
330
C
100
AcDbDictionary
281
     1
  3
Normal
350
F
100
AcDbDictionaryWithDefault
340
F
  0
DICTIONARY
  5
1A0
102
{ACAD_REACTORS
330
C
102
}
330
C
100
AcDbDictionary
281
     1
  0
DICTIONARY
  5
2A
102
{ACAD_REACTORS
330
C
102
}
330
C
100
AcDbDictionary
281
     1
  3
2dWireframe
350
2F
  3
3D Hidden
350
31
  3
3dWireframe
350
30
  3
Basic
350
32
  3
Brighten
350
36
  3
ColorChange
350
3A
  3
Conceptual
350
34
  3
Dim
350
35
  3
Facepattern
350
39
  3
Flat
350
2B
  3
FlatWithEdges
350
2C
  3
Gouraud
350
2D
  3
GouraudWithEdges
350
2E
  3
Linepattern
350
38
  3
Realistic
350
33
  3
Thicken
350
37
  0
LAYOUT
  5
1E
102
{ACAD_REACTORS
330
1A
102
}
330
1A
100
AcDbPlotSettings
  1

  2
none_device
  4

  6

 40
0.0
 41
0.0
 42
0.0
 43
0.0
 44
0.0
 45
0.0
 46
0.0
 47
0.0
 48
0.0
 49
0.0
140
0.0
141
0.0
142
1.0
143
1.0
 70
   688
 72
     0
 73
     0
 74
     5
  7

 75
    16
 76
     0
 77
     2
 78
   300
147
1.0
148
0.0
149
0.0
100
AcDbLayout
  1
Layout1
 70
     1
 71
     1
 10
0.0
 20
0.0
 11
12.0
 21
9.0
 12
0.0
 22
0.0
 32
0.0
 14
1.000000000000000E+20
 24
1.000000000000000E+20
 34
1.000000000000000E+20
 15
-1.000000000000000E+20
 25
-1.000000000000000E+20
 35
-1.000000000000000E+20
146
0.0
 13
0.0
 23
0.0
 33
0.0
 16
1.0
 26
0.0
 36
0.0
 17
0.0
 27
1.0
 37
0.0
 76
     0
330
1B
  0
LAYOUT
  5
26
102
{ACAD_REACTORS
330
1A
102
}
330
1A
100
AcDbPlotSettings
  1

  2
none_device
  4

  6

 40
0.0
 41
0.0
 42
0.0
 43
0.0
 44
0.0
 45
0.0
 46
0.0
 47
0.0
 48
0.0
 49
0.0
140
0.0
141
0.0
142
1.0
143
1.0
 70
   688
 72
     0
 73
     0
 74
     5
  7

 75
    16
 76
     0
 77
     2
 78
   300
147
1.0
148
0.0
149
0.0
100
AcDbLayout
  1
Layout2
 70
     1
 71
     2
 10
0.0
 20
0.0
 11
0.0
 21
0.0
 12
0.0
 22
0.0
 32
0.0
 14
0.0
 24
0.0
 34
0.0
 15
0.0
 25
0.0
 35
0.0
146
0.0
 13
0.0
 23
0.0
 33
0.0
 16
1.0
 26
0.0
 36
0.0
 17
0.0
 27
1.0
 37
0.0
 76
     0
330
23
  0
LAYOUT
  5
22
102
{ACAD_REACTORS
330
1A
102
}
330
1A
100
AcDbPlotSettings
  1

  2
none_device
  4

  6

 40
0.0
 41
0.0
 42
0.0
 43
0.0
 44
0.0
 45
0.0
 46
0.0
 47
0.0
 48
0.0
 49
0.0
140
0.0
141
0.0
142
1.0
143
1.0
 70
  1712
 72
     0
 73
     0
 74
     0
  7

 75
     0
 76
     0
 77
     2
 78
   300
147
1.0
148
0.0
149
0.0
100
AcDbLayout
  1
Model
 70
     1
 71
     0
 10
0.0
 20
0.0
 11
12.0
 21
9.0
 12
0.0
 22
0.0
 32
0.0
 14
1.000000000000000E+20
 24
1.000000000000000E+20
 34
1.000000000000000E+20
 15
-1.000000000000000E+20
 25
-1.000000000000000E+20
 35
-1.000000000000000E+20
146
0.0
 13
0.0
 23
0.0
 33
0.0
 16
1.0
 26
0.0
 36
0.0
 17
0.0
 27
1.0
 37
0.0
 76
     0
330
1F
331
29
  0
MLINESTYLE
  5
18
102
{ACAD_REACTORS
330
17
102
}
330
17
100
AcDbMlineStyle
  2
Standard
 70
     0
  3

 62
   256
 51
90.0
 52
90.0
 71
     2
 49
0.5
 62
   256
  6
BYLAYER
 49
-0.5
 62
   256
  6
BYLAYER
  0
ACDBPLACEHOLDER
  5
F
102
{ACAD_REACTORS
330
E
102
}
330
E
  0
VISUALSTYLE
  5
2F
102
{ACAD_REACTORS
330
2A
102
}
330
2A
100
AcDbVisualStyle
  2
2dWireframe
 70
     4
 71
     0
 72
     2
 73
     0
 90
        0
 40
-0.6
 41
-30.0
 62
     5
 63
     7
421
 16777215
 74
     1
 91
        4
 64
     7
 65
   257
 75
     1
175
     1
 42
1.0
 92
        0
 66
   257
 43
1.0
 76
     1
 77
     6
 78
     2
 67
     7
 79
     5
170
     0
171
     0
290
     0
174
     0
 93
        1
 44
0.0
173
     0
291
     0
 45
0.0
1001
ACAD
1000
AcDbSavedByObjectVersion
1070
     0
  0
VISUALSTYLE
  5
31
102
{ACAD_REACTORS
330
2A
102
}
330
2A
100
AcDbVisualStyle
  2
3D Hidden
 70
     6
 71
     1
 72
     2
 73
     2
 90
        0
 40
-0.6
 41
-30.0
 62
     5
 63
     7
421
 16777215
 74
     2
 91
        2
 64
     7
 65
   257
 75
     2
175
     1
 42
40.0
 92
        0
 66
   257
 43
1.0
 76
     1
 77
     6
 78
     2
 67
     7
 79
     3
170
     0
171
     0
290
     0
174
     0
 93
        1
 44
0.0
173
     0
291
     0
 45
0.0
1001
ACAD
1000
AcDbSavedByObjectVersion
1070
     0
  0
VISUALSTYLE
  5
30
102
{ACAD_REACTORS
330
2A
102
}
330
2A
100
AcDbVisualStyle
  2
3dWireframe
 70
     5
 71
     0
 72
     2
 73
     0
 90
        0
 40
-0.6
 41
-30.0
 62
     5
 63
     7
421
 16777215
 74
     1
 91
        4
 64
     7
 65
   257
 75
     1
175
     1
 42
1.0
 92
        0
 66
   257
 43
1.0
 76
     1
 77
     6
 78
     2
 67
     7
 79
     5
170
     0
171
     0
290
     0
174
     0
 93
        1
 44
0.0
173
     0
291
     0
 45
0.0
1001
ACAD
1000
AcDbSavedByObjectVersion
1070
     0
  0
VISUALSTYLE
  5
32
102
{ACAD_REACTORS
330
2A
102
}
330
2A
100
AcDbVisualStyle
  2
Basic
 70
     7
 71
     1
 72
     0
 73
     1
 90
        0
 40
-0.6
 41
-30.0
 62
     5
 63
     7
421
 16777215
 74
     0
 91
        4
 64
     7
 65
   257
 75
     1
175
     1
 42
1.0
 92
        8
 66
     7
 43
1.0
 76
     1
 77
     6
 78
     2
 67
     7
 79
     5
170
     0
171
     0
290
     0
174
     0
 93
        1
 44
0.0
173
     0
291
     1
 45
0.0
1001
ACAD
1000
AcDbSavedByObjectVersion
1070
     0
  0
VISUALSTYLE
  5
36
102
{ACAD_REACTORS
330
2A
102
}
330
2A
100
AcDbVisualStyle
  2
Brighten
 70
    12
 71
     2
 72
     2
 73
     0
 90
        0
 40
-0.6
 41
-30.0
 62
     5
 63
     7
421
 16777215
 74
     1
 91
        4
 64
     7
 65
   257
 75
     1
175
     1
 42
1.0
 92
        8
 66
     7
 43
1.0
 76
     1
 77
     6
 78
     2
 67
     7
 79
     5
170
     0
171
     0
290
     0
174
     0
 93
        1
 44
50.0
173
     0
291
     1
 45
0.0
1001
ACAD
1000
AcDbSavedByObjectVersion
1070
     0
  0
VISUALSTYLE
  5
3A
102
{ACAD_REACTORS
330
2A
102
}
330
2A
100
AcDbVisualStyle
  2
ColorChange
 70
    16
 71
     2
 72
     2
 73
     3
 90
        0
 40
-0.6
 41
-30.0
 62
     5
 63
     8
421
  8421504
 74
     1
 91
        4
 64
     7
 65
   257
 75
     1
175
     1
 42
1.0
 92
        8
 66
     8
424
  8421504
 43
1.0
 76
     1
 77
     6
 78
     2
 67
     7
 79
     5
170
     0
171
     0
290
     0
174
     0
 93
        1
 44
0.0
173
     0
291
     1
 45
0.0
1001
ACAD
1000
AcDbSavedByObjectVersion
1070
     0
  0
VISUALSTYLE
  5
34
102
{ACAD_REACTORS
330
2A
102
}
330
2A
100
AcDbVisualStyle
  2
Conceptual
 70
     9
 71
     3
 72
     2
 73
     0
 90
        0
 40
-0.6
 41
-30.0
 62
     5
 63
     7
421
 16777215
 74
     2
 91
        2
 64
     7
 65
   257
 75
     1
175
     1
 42
40.0
 92
        8
 66
     7
 43
1.0
 76
     1
 77
     6
 78
     2
 67
     7
 79
     3
170
     0
171
     0
290
     0
174
     0
 93
        1
 44
0.0
173
     0
291
     0
 45
0.0
1001
ACAD
1000
AcDbSavedByObjectVersion
1070
     0
  0
VISUALSTYLE
  5
35
102
{ACAD_REACTORS
330
2A
102
}
330
2A
100
AcDbVisualStyle
  2
Dim
 70
    11
 71
     2
 72
     2
 73
     0
 90
        0
 40
-0.6
 41
-30.0
 62
     5
 63
     7
421
 16777215
 74
     1
 91
        4
 64
     7
 65
   257
 75
     1
175
     1
 42
1.0
 92
        8
 66
     7
 43
1.0
 76
     1
 77
     6
 78
     2
 67
     7
 79
     5
170
     0
171
     0
290
     0
174
     0
 93
        1
 44
-50.0
173
     0
291
     1
 45
0.0
1001
ACAD
1000
AcDbSavedByObjectVersion
1070
     0
  0
VISUALSTYLE
  5
39
102
{ACAD_REACTORS
330
2A
102
}
330
2A
100
AcDbVisualStyle
  2
Facepattern
 70
    15
 71
     2
 72
     2
 73
     0
 90
        0
 40
-0.6
 41
-30.0
 62
     5
 63
     7
421
 16777215
 74
     1
 91
        4
 64
     7
 65
   257
 75
     1
175
     1
 42
1.0
 92
        8
 66
     7
 43
1.0
 76
     1
 77
     6
 78
     2
 67
     7
 79
     5
170
     0
171
     0
290
     0
174
     0
 93
        1
 44
0.0
173
     0
291
     1
 45
0.0
1001
ACAD
1000
AcDbSavedByObjectVersion
1070
     0
  0
VISUALSTYLE
  5
2B
102
{ACAD_REACTORS
330
2A
102
}
330
2A
100
AcDbVisualStyle
  2
Flat
 70
     0
 71
     2
 72
     1
 73
     1
 90
        2
 40
-0.6
 41
30.0
 62
     5
 63
     7
421
 16777215
 74
     0
 91
        4
 64
     7
 65
   257
 75
     1
175
     1
 42
1.0
 92
        8
 66
     7
 43
1.0
 76
     1
 77
     6
 78
     2
 67
     7
 79
     5
170
     0
171
     0
290
     0
174
     0
 93
       13
 44
0.0
173
     0
291
     1
 45
0.0
1001
ACAD
1000
AcDbSavedByObjectVersion
1070
     0
  0
VISUALSTYLE
  5
2C
102
{ACAD_REACTORS
330
2A
102
}
330
2A
100
AcDbVisualStyle
  2
FlatWithEdges
 70
     1
 71
     2
 72
     1
 73
     1
 90
        2
 40
-0.6
 41
30.0
 62
     5
 63
     7
421
 16777215
 74
     1
 91
        4
 64
     7
 65
   257
 75
     1
175
     1
 42
1.0
 92
        0
 66
   257
 43
1.0
 76
     1
 77
     6
 78
     2
 67
     7
 79
     5
170
     0
171
     0
290
     0
174
     0
 93
       13
 44
0.0
173
     0
291
     1
 45
0.0
1001
ACAD
1000
AcDbSavedByObjectVersion
1070
     0
  0
VISUALSTYLE
  5
2D
102
{ACAD_REACTORS
330
2A
102
}
330
2A
100
AcDbVisualStyle
  2
Gouraud
 70
     2
 71
     2
 72
     2
 73
     1
 90
        2
 40
-0.6
 41
30.0
 62
     5
 63
     7
421
 16777215
 74
     0
 91
        4
 64
     7
 65
   257
 75
     1
175
     1
 42
1.0
 92
        0
 66
     7
 43
1.0
 76
     1
 77
     6
 78
     2
 67
     7
 79
     5
170
     0
171
     0
290
     0
174
     0
 93
       13
 44
0.0
173
     0
291
     1
 45
0.0
1001
ACAD
1000
AcDbSavedByObjectVersion
1070
     0
  0
VISUALSTYLE
  5
2E
102
{ACAD_REACTORS
330
2A
102
}
330
2A
100
AcDbVisualStyle
  2
GouraudWithEdges
 70
     3
 71
     2
 72
     2
 73
     1
 90
        2
 40
-0.6
 41
30.0
 62
     5
 63
     7
421
 16777215
 74
     1
 91
        4
 64
     7
 65
   257
 75
     1
175
     1
 42
1.0
 92
        0
 66
   257
 43
1.0
 76
     1
 77
     6
 78
     2
 67
     7
 79
     5
170
     0
171
     0
290
     0
174
     0
 93
       13
 44
0.0
173
     0
291
     1
 45
0.0
1001
ACAD
1000
AcDbSavedByObjectVersion
1070
     0
  0
VISUALSTYLE
  5
38
102
{ACAD_REACTORS
330
2A
102
}
330
2A
100
AcDbVisualStyle
  2
Linepattern
 70
    14
 71
     2
 72
     2
 73
     0
 90
        0
 40
-0.6
 41
-30.0
 62
     5
 63
     7
421
 16777215
 74
     1
 91
        4
 64
     7
 65
   257
 75
     7
175
     7
 42
1.0
 92
        8
 66
     7
 43
1.0
 76
     1
 77
     6
 78
     2
 67
     7
 79
     5
170
     0
171
     0
290
     0
174
     0
 93
        1
 44
0.0
173
     0
291
     1
 45
0.0
1001
ACAD
1000
AcDbSavedByObjectVersion
1070
     0
  0
VISUALSTYLE
  5
33
102
{ACAD_REACTORS
330
2A
102
}
330
2A
100
AcDbVisualStyle
  2
Realistic
 70
     8
 71
     2
 72
     2
 73
     0
 90
        0
 40
-0.6
 41
-30.0
 62
     5
 63
     7
421
 16777215
 74
     1
 91
        0
 64
     7
 65
   257
 75
     1
175
     1
 42
1.0
 92
        8
 66
     8
424
  7895160
 43
1.0
 76
     1
 77
     6
 78
     2
 67
     7
 79
     5
170
     0
171
     0
290
     0
174
     0
 93
       13
 44
0.0
173
     0
291
     0
 45
0.0
1001
ACAD
1000
AcDbSavedByObjectVersion
1070
     0
  0
VISUALSTYLE
  5
37
102
{ACAD_REACTORS
330
2A
102
}
330
2A
100
AcDbVisualStyle
  2
Thicken
 70
    13
 71
     2
 72
     2
 73
     0
 90
        0
 40
-0.6
 41
-30.0
 62
     5
 63
     7
421
 16777215
 74
     1
 91
        4
 64
     7
 65
   257
 75
     1
175
     1
 42
1.0
 92
       12
 66
     7
 43
1.0
 76
     1
 77
     6
 78
     2
 67
     7
 79
     5
170
     0
171
     0
290
     0
174
     0
 93
        1
 44
0.0
173
     0
291
     1
 45
0.0
1001
ACAD
1000
AcDbSavedByObjectVersion
1070
     0
  0
ENDSEC
  0
EOF
